Oops, an error
Loading. Please wait.

Sarah Donner - Treeline Tab

5,663 views 1 this week
no commentswrite comment
1 2 3 4 5
1 last vote to show rating
add to favorites
launch autoscroll
font size
0
reset
how to read this tab
guitar tuner
Autoscroll
slow
fast
+/-
esc
set tempo
stop
Help us to improve Ultimate-Guitar.com Take our survey!
×
Author
Difficulty
novice
Treeline by Sarah Donner
www.sarahdonner.com
TAB for standard tuned baritone ukulele or guitar

VERSES:
|--3----3----3-----3-----------3----3----3----3----|
|--3----2----1-----0-----1h----3----2----1----0----|
|------------------------------0----0----0---------|
|--------------------------------------------------|
|--------------------------------------------------|
|--------------------------------------------------|

In my backyard I have boxes
I have spices and parked cars
In your backyard you have mountains
You have highway you see the stars

But I don't see stars from my backyard
oh but I believe that they are there
If you see one would you wish on it
for me here

CHORUS:
|--3----3----3----3----3------3----3----3----3----3----3-------3----3---|
|--3----3----3----3----3------3----3----3----3----3----3-------3----3---|
|--2----0----0----0----2------2----0----0----0----0----2-------0----0---|
|--0----2----4----0----0------0----2----4----4----0----0-------2----4---|
|-----------------------------------------------------------------------|
|-----------------------------------------------------------------------|
CHORUS
Eyes on the treeline  Feet in the sand
These things surround me, and I can't breathe in,
But you won't see me in the valley

VERSE 2
On your mountain you have branded
an initial monogram
In my window I have neon
not much brighter, but draws me in

If I don't make it to the summit
would you send someone down?
Call for backup if I can't make it up
on my own
Suggest correction
Give kudos to tab author, rate the tab!
1 2 3 4 5
comments
print report bad tab
guest
You may want to rate the tab now too:
select rating
Wanna post a correction for this tab? Suggest correction