Oops, an error
Loading. Please wait.

Satans Death - Devils Regretion Tab

77 views 1 this week
no commentswrite comment
1 2 3 4 5
please rate
add to favorites
launch autoscroll
font size
0
reset
how to read this tab
guitar tuner
Tab Pro tools
  • play this tab
  • loop segment
  • change instrument
  • show fretboard
  • metronome
Autoscroll
slow
fast
+/-
esc
set tempo
stop
Contributor
Difficulty
advanced
band:satans death
song:devils regretion
album:die all devil worshipers

Guitarists:
Ryan Clarke
Christian Padagas

intro(played faster)-christian
1-------------------------------------------|
2-0-0-0-0-0-0-3-0-0-0-0-0-0-5-0-0-0-0-7-6-4-|
3-------------------------------------------|
4-------------------------------------------|
5-------------------------------------------|
6-------------------------------------------|  repeat 2x

riffa(regular speed)-both guitars
1---------------------------------------------------------|
2-0-0-0-0-3-0-0-5-0-0-7-6-4-----0-0-0-0-3-0-0-5-0-0-7-6-4-|
3---------------------------------------------------------|
4---------------------------------------------------------|
5---------------------------------------------------------|
6---------------------------------------------------------|

riffa-ryan
1------------------------------------------------------|
2-0-0-0-0-3-0-0-5-0-0-7-6-4--0-0-0-0-3-0-0-5-0-0-7-6-4-|
3------------------------------------------------------|
4------------------------------------------------------|
5------------------------------------------------------|
6------------------------------------------------------|

1----------------------------------------------------|
2--------------------------0-0-0-0-3-0-0-5-0-0-7-6-4-|
3-0-0-0-0-3-0-0-5-0-0-7-6-4--------------------------|
4----------------------------------------------------|
5----------------------------------------------------|
6----------------------------------------------------|

riffa(rythem)-christian
1-------------------------------------------------------------|
2-------------------------------------------------------------|
3-------------------------------------------------------------|
4-7----------------9--------------5--------------6------------|
5-5----------------7--------------3--------------4--pickslide-|
6-------------------------------------------------------------|

Riffb-both guitars
1-------------------------------------------|
2-------------------------------------------|
3-------------------------------------------|
4-9---9---10--7--9-9---10-7----9--9----10-7-|
5-7---7---8---5--7-7---8--5----7--7----8--5-|
6-7---7---8---5--7-7---8--5----7--7----8--5-|

riffb(lead)-christian:play after second part of riff
1------------------------------------------11-13----------------------12-14-|
2-12-12-12-12-12-12-12-12-12-12-12-12--13-------11-13------------12-14------|
3----------------------------------------14-----------11-13-12-14-----------|
4---------------------------------------------------------------------------|
5---------------------------------------------------------------------------|
6---------------------------------------------------------------------------|

verse riff-both guitars
1---------------------------|
2---------------------------|
3---------------------------|
4-9-9-9-9-9-9-9-9-9-9-10--7-| repeat #x
5-7-7-7-7-7-7-7-7-7-7-8---5-|
6-7-7-7-7-7-7-7-7-7-7-8---5-|

chorus-both guitars
1--------------------------------------------------------------|
2--------------------------------------------------------------|
3--------------------------------------------------------------|
4-9-9-9-9-9-10-10---10---10---10---9-9-9-9-9-7-7-7-7-7---------|
5-7-7-7-7-7-8---8----8----8----8---7-7-7-7-7-5-5-5-5-5---------|
6-7-7-7-7-7-8---8----8----8----8---7-7-7-7-7-5-5-5-5-5 repeat--| 2x

don't know the solos because there real fast and crazy

solos:
1---------------s-|
2-------------lo--|
3-----------o-----|
4-----z----s------|
5--r-a--y---------|
6-c---------------|
comments
We did not receive enough feedback on this tab! Please rate:
print report bad tab
1 2 3 4 5
I want to post or [tab]
guest
You may want to rate the tab now too:
select rating
Please do not post tabs as comments. Select "correction" instead!