Oops, an error
Loading. Please wait.

Satans Halo - Breakin Up Tab

56 views 1 this week
no commentswrite comment
1 2 3 4 5
2 more votes to show rating
add to favorites
launch autoscroll
font size
0
reset
how to read this tab
guitar tuner
Autoscroll
slow
fast
+/-
esc
set tempo
stop
Help us to improve Ultimate-Guitar.com Take our survey!
×
Unsigned yet amazing band
verse

E|------------------------------------------------------------|
B|------------------------------------------------------------|
G|------3--3-3-3-------5--5-5-5--3-3-3----------7-7-7---------|
D|5-5-5-3--3-3-3-5-5-5-5--5-5-5--3-3-3-5--5-5-5-7-7-7-5--5-5-5|
A|5-5-5-1--1-1-1-5-5-5-3--3-3-3--1-1-1-5--5-5-5-5-5-5-5--5-5-5|
E|3-3-3----------3-3-3-----------------3--3-3-3-------3--3-3-3|

Play this about 3 times

Bridge

E|----------|
B|----------|
G|7-7--3----|
D|7-7--3-5-5|
A|5-5--1-5-5|
E|-------3-3|

Play this 3 times

Chorous

E|-------------------------------------|
B|-------------------------------------|
G|9-9-9-8---7-7-7-6---4-4-4-5----------|
D|9-9-9-9---7-7-7-7---5-5-5-5---6-6-6-7|
A|7-7-7-6---5-5-5-4---2-2-2-3---7-7-7-7|
E|------------------------------4-4-4-5|
Play this 2 times

Solo

E|---------------------------15-18-18-20-18----18H20P18------------------15-|
B|---------------------15-18----------------20----------20-20-20-20---20----|
G|----------15B--15-17------------------------------------------------------|
D|----15-17-----------------------------------------------------------------|
A|-17-----------------------------------------------------------------------|
E|--------------------------------------------------------------------------|

E|----------------------------------------------------------------------15-15-|
B|-18-15----------------------------------------------------------15H18-------|
G|-------17B-15---------------------------15H16--------------15H17------------|
D|--------------17--17--15H16-17-17-17-17-------17-17-17--17------------------|
A|----------------------------------------------------------------------------|
E|----------------------------------------------------------------------------|

E|-15-18-20-18--------------15-------------------------------------------|
B|-------------20-20-20--20----18-15-------------------------------------|
G|-----------------------------------17-15----------------------15H16----|
D|-----------------------------------------17-------15-15H16-17-------15-|
A|--------------------------------------------15H16----------------------|
E|-----------------------------------------------------------------------|

E|------------------------------------------------------------------------|
B|------------------------------------------------------------------------|
G|------------------------------------------------------15-15-15----------|
D|15H16P15-15H16P15-15H16P15-15H16P15-15H16P15-17-17-17-17-17-17-17-17-17-|
A|---------------------------------------------------------------15-15-15-|
E|------------------------------------------------------------------------|

E|-----------------------------|
B|-----------------------------|
G|-17-17-17----------14--14--14|
D|-15-15-15-15-15-15-15--15--15|
A|----------17-17-17-17--17--17|
E|-----------------------------|

SONGSTUCTURE

Verse
bridge
chorous
bridge
verse
bridge
chorous
bridge
solo
verse


Any questions email iskate_9@hotmail.com or adamregskater@aol.com
Suggest correction
Give kudos to tab author, rate the tab!
1 2 3 4 5
comments
print report bad tab
guest
You may want to rate the tab now too:
select rating
Wanna post a correction for this tab? Suggest correction