Oops, an error
Loading. Please wait.

Saturnspyroteknix - Youre Not Alone Tab

version 1
version 1

Whole song

Interactive

117 views 1 this week
no commentswrite comment
1 2 3 4 5
please rate
add to favorites
launch autoscroll
font size
0
reset
how to read this tab
guitar tuner
Autoscroll
slow
fast
+/-
esc
set tempo
stop
Help us to improve Ultimate-Guitar.com Take our survey!
×
Note: This is our first song to be publicly released, we haven't recorded it 
yet...  If you wish to download a .ptb file, I have posted it to UG.  Enjoy!

Tabbed by: Fooby451º (saturns.pyroteknix@yahoo.com)

Visit our website! http://www.dr2008.webs.com/


#----------------------------------PLEASE NOTE---------------------------------#
#This file is the author's own work and represents their interpretation of the #
#song. You may only use this file for private study, scholarship, or research. #
#------------------------------------------------------------------------------#


Gtr I (E A D G B) - 'Lead'
Gtr II (E A D G B E) - 'Rhythm'

 Pre-Verse (Drums)           Verse 1
  Fast Rock Q=164
  Gtr I
  W          W               W             W            4x
|----------|-------------||--------------|--------------||
|----------|-------------||o-------------|-------------o||
|----------|-------------||--------------|--------------||
|----------|-------------||o-------------|-------------o||
|----------|-------------||--------------|--------------||
|
| Gtr II
| W          H..       E     E H..         H..       E  4x
|----------|-------------||--------------|--------------||
|----------|-------------||o-------------|-------------o||
|----------|-------------||--------------|--------------||
|----------|-----------4-||--2-----------|-----------4--||
|----------|-----------4-||o-2-----------|-----------4-o||
|----------|-----------2-||--0-----------|-----------2--||


   Verse 2
                 1.,2.,3.        4.
    TP            TP              TP
    W             W            4x H.         Q
||--------------|--------------||-----------------|
||o-------------|-------------o||-----------------|
||--------------|--------------||-----------------|
||o-------------|-------------o||-----------------|
||--0-----------|-0------------||-0---------19\---|
|
|   E H..         H..       E  4x H     E E  E  E
||--------------|--------------||-----------------|
||o-------------|-------------o||-----------------|
||--------------|--------------||-----------------|
||--2-----------|-----------4--||---------4--4--4-|
||o-2-----------|-----------4-o||---------4--4--4-|
||--0-----------|-----------2--||---------2--2--2-|


 Chorus
  E E E E E E E E   E E Q   S S S S S S S S
|-----------------|-------------------------|
|-----------------|-------------------------|
|-4-4-4-4-4-4-4-4-|-4-4-4-------------------|
|-4-4-4-4-4-4-4-4-|-4-4-4---0h2h3p2p0h2h3p2-|
|-2-2-2-2-2-2-2-2-|-2-2-2-------------------|
|
| E E E E E E E E   E E H.
|-----------------|-------------------------|
|-----------------|-------------------------|
|-----------------|-------------------------|
|-4-4-4-4-4-4-4-4-|-4-4-4-------------------|
|-4-4-4-4-4-4-4-4-|-4-4-4-------------------|
|-2-2-2-2-2-2-2-2-|-2-2-2-------------------|


  E E E E E E E E   Q  H      S S S S S S
|-----------------|------------------------|
|-----------------|------------------------|
|---4-4-4-4-4-4-4-|-4---------5-5-5-5-5-5--|
|-0-4-4-4-4-4-4-4-|-4---------5-5-5-5-5-5--|
|---2-2-2-2-2-2-2-|-2---------3-3-3-3-3-3--|
|
| E E E E E E E E   W
|-----------------|------------------------|
|-----------------|------------------------|
|-----------------|------------------------|
|-4-4-4-4-4-4-4-4-|-4----------------------|
|-4-4-4-4-4-4-4-4-|-4----------------------|
|-2-2-2-2-2-2-2-2-|-2----------------------|


                                                ~~~~~ <--(with whammy bar)
  E  E E E E E E   E     H.       Q      H     +H
|----------------------|--------------|---------------|
|----------------------|--------------|---------------|
|-2--2-2-2-2-2-2---2---|--------------|--2-----(2)----|
|-2--2-2-2-2-2-2---2---|--------------|--2-----(2)----|
|-0--0-0-0-0-0-0---0---|---------19\--|--0-----(0)----|
|                                        ~~~~~~~~~~~~ <--(with whammy bar)
| H.           S S S S   W              +W
|----------------------|--------------|---------------|
|----------------------|--------------|---------------|
|----------------------|--------------|---------------|
|-2------------2-2-2-2-|-2------------|-(2)-----------|
|-2------------2-2-2-2-|-2------------|-(2)-----------|
|-0------------0-0-0-0-|-0------------|-(0)-----------|


   ~~~                                                   ~~~~~~~~~~~ <--(with whammy bar)
  +W           H.      E  E   W          +W             +W           +W
|------------|---------x--x-|----------|--------------|------------|--------| *bend over 
|------------|---------x--x-|----------|--------------|------------|--------| duration of
|-(2)--------|---------x--x-|-2--------|-(2)b4*-------|-(2)--------|-(2)----| measure, then 
|-(2)--------|---------x--x-|-2--------|-(2)b4--------|-(2)--------|-(2)----| hold bend 
|-(0)--------|---------x--x-|-0--------|-(0)----------|-(0)--------|-(0)----| until the
|                                                                             beginning of
| +W           W              W           W              W           +W       verse 4.
|------------|--------------|----------|--------------|------------|--------|
|------------|--------------|----------|--------------|------------|--------|
|------------|--------------|----------|--------------|------------|--------|
|------------|--------------|----------|--------------|--2---------|-(2)----|
|------------|--------------|----------|--------------|--2---------|-(2)----|
|------------|--------------|----------|--------------|--0---------|-(0)----|


  ~~~~~~     ~~~~~~         Verse 3
  +W         +W              W             W            4x
|----------|-------------||--------------|--------------||
|----------|-------------||o-------------|-------------o||
|(2)-------|(2)----------||--------------|--------------||
|(2)-------|(2)----------||o-------------|-------------o||
|(0)-------|(0)----------||--------------|--------------||
|
| W          H..       E     E H..         H..       E  4x
|----------|-------------||--------------|--------------||
|----------|-------------||o-------------|-------------o||
|----------|-------------||--------------|--------------||
|----------|-----------4-||--2-----------|-----------4--||
|----------|-----------4-||o-2-----------|-----------4-o||
|----------|-----------2-||--0-----------|-----------2--||


   Verse 4
                 1.,2.,3.        4.
    TP            TP              TP
    W             W            4x H.         Q
||--------------|--------------||-----------------|
||o-------------|-------------o||-----------------|
||--------------|--------------||-----------------|
||o-------------|-------------o||-----------------|
||--0-----------|-0------------||-0s========19\---|
|
|   E H..         H..       E  4x H     E E  E  E
||--------------|--------------||-----------------|
||o-------------|-------------o||-----------------|
||--------------|--------------||-----------------|
||--2-----------|-----------4--||---------4--4--4-|
||o-2-----------|-----------4-o||---------4--4--4-|
||--0-----------|-----------2--||---------2--2--2-|


 Chorus
  E E E E E E E E   E E Q   S S S S S S S S
|-----------------|-------------------------|
|-----------------|-------------------------|
|-4-4-4-4-4-4-4-4-|-4-4-4-------------------|
|-4-4-4-4-4-4-4-4-|-4-4-4---0-2-3-2-0-2-3-2-|
|-2-2-2-2-2-2-2-2-|-2-2-2-------------------|
|
| E E E E E E E E   E E H.
|-----------------|-------------------------|
|-----------------|-------------------------|
|-----------------|-------------------------|
|-4-4-4-4-4-4-4-4-|-4-4-4-------------------|
|-4-4-4-4-4-4-4-4-|-4-4-4-------------------|
|-2-2-2-2-2-2-2-2-|-2-2-2-------------------|


  E E E E E E E E   Q  Q  S S S S S S S S
|-----------------|------------------------|
|-----------------|------------------------|
|---4-4-4-4-4-4-4-|-4-----5-5-5-5-5-5-5-5--|
|---4-4-4-4-4-4-4-|-4-----5-5-5-5-5-5-5-5--|
|---2-2-2-2-2-2-2-|-2-----3-3-3-3-3-3-3-3--|
|
| E E E E E E E E   W
|-----------------|------------------------|
|-----------------|------------------------|
|-----------------|------------------------|
|-4-4-4-4-4-4-4-4-|-4----------------------|
|-4-4-4-4-4-4-4-4-|-4----------------------|
|-2-2-2-2-2-2-2-2-|-2----------------------|


                                                ~~~
  E  E E E E E E   E     H.       Q      H     +H
|----------------------|--------------|---------------|
|----------------------|--------------|---------------|
|-2--2-2-2-2-2-2---2---|--------------|--2-----(2)----|
|-2--2-2-2-2-2-2---2---|--------------|--2-----(2)----|
|-0--0-0-0-0-0-0---0---|---------19\--|--0-----(0)----|
|
| H.           S S S S   W              +W
|----------------------|--------------|---------------|
|----------------------|--------------|---------------|
|----------------------|--------------|---------------|
|-2------------2-2-2-2-|-2------------|-(2)-----------|
|-2------------2-2-2-2-|-2------------|-(2)-----------|
|-0------------0-0-0-0-|-0------------|-(0)-----------|


 Outro (with insane drums)
  ~~~~~~~~~~~~~~~~~~~~~~~~~~~~
  W          +W           +W            Q   H.
|----------|------------|------------|------------*|
|----------|------------|------------|------------*|
|-2--------|-(2)--------|-(2)--------|--2\--------*|
|-2--------|-(2)--------|-(2)--------|--2\--------*|
|-0--------|-(0)--------|-(0)--------|--0---------*|
|
| Gtr II
| W          +W           +W           +Q   H.
|----------|------------|------------|------------*|
|----------|------------|------------|------------*|
|----------|------------|------------|------------*|
|-2--------|-(2)--------|-(2)--------|-(2)--------*|
|-2--------|-(2)--------|-(2)--------|-(2)--------*|
|-0--------|-(0)--------|-(0)--------|-(0)--------*|


Duration Legend
---------------
W - whole; H - half; Q - quarter; E - 8th; S - 16th; T - 32nd; X - 64th; a - acciaccatura
+ - note tied to previous; . - note dotted; .. - note double dotted
Uncapitalized letters represent notes that are staccato (1/2 duration)
Irregular groupings are notated above the duration line
Duration letters will always appear directly above the note/fret number it represents the
duration for.  Duration letters with no fret number below them represent rests.  Multi-
bar rests are notated in the form Wxn, where n is the number of bars to rest for.  Low
melody durations appear below the staff

Tablature Legend
----------------
 h   - hammer-on
 p   - pull-off
 b   - bend
 pb  - pre-bend
 r   - bend release (if no number after the r, then release immediately)
 /\  - slide into or out of (from/to "nowhere")
 s   - legato slide
 S   - shift slide
  - natural harmonic
[n]  - artificial harmonic
n(n) - tapped harmonic
 ~   - vibrato
 tr  - trill
 T   - tap
 TP  - trem. picking
 PM  - palm muting
\n/  - tremolo bar dip; n = amount to dip
 \n  - tremolo bar down
 n/  - tremolo bar up
/n\  - tremolo bar inverted dip
 =   - hold bend; also acts as connecting device for hammers/pulls
 <>  - volume swell (louder/softer)
 x   - on rhythm slash represents muted slash
 o   - on rhythm slash represents single note slash

Misc Legend
-----------
 |  - bar
||  - double bar
||o - repeat start
o|| - repeat end
*|  - double bar (ending)
 :  - bar (freetime)
 $  - Segno
 &  - Coda
Tempo markers -  = BPM(8/16=s8/s16), where s8 = swing 8ths, s16 = swing 16ths


***************************************************************************************
* Generated using Power Tab Editor by Brad Larsen - http://powertab.guitarnetwork.org *
***************************************************************************************
Suggest correction
What's this?
You can suggest a correction to this tab. Community and Mods will review your correction and vote to approve or reject it.
comments
We did not receive enough feedback on this tab! Please rate:
print report bad tab
1 2 3 4 5
guest
You may want to rate the tab now too:
select rating
Please do not post tabs as comments. Select "correction" instead!