Oops, an error
Loading. Please wait.

Saving Generations - Gorgies Song Tab

62 views 1 this week
no commentswrite comment
1 2 3 4 5
3 more votes to show rating
add to favorites
launch autoscroll
font size
0
reset
how to read this tab
guitar tuner
Autoscroll
slow
fast
+/-
esc
set tempo
stop
Help us to improve Ultimate-Guitar.com Take our survey!
×
Author
Difficulty
novice
-------------------------------------------------------------------------------
gerogie's song - saving generations
-------------------------------------------------------------------------------
Tabbed by:jagstu
Email:the1bluduskies@gmail.com

Tuning:standard
(x2)
e|--------------------------------------------------------------------------|
B|--3-----------3-3------3------------3-------------------------------------|
G|--0---0~------2-2------0---0~-------2p0-----------------------------------|
D|--2-----------0-0------2--------0---0-------------------------------------|
A|--2--------------------3--------2-----------------------------------------|
E|--------------------------------3-----------------------------------------|
(x2)
e|--------------------------------------------------------------------------|
B|--3-----------3-3------3------------3-------------------------------------|
G|--0-----------2-2------0------------2p0-----------------------------------|
D|--2-----------0-0------2--------0---0-------------------------------------|
A|--2--------------------3--------2-----------------------------------------|
E|--------------------------------3-----------------------------------------|

e|--------------------------------------------------------------------------|
B|--3-----------3-3------3------3-5-3---------------------------------------|
G|--0-----------2-2------0------2-2-2---------------------------------------|
D|--2-----------0-0------2------0-0-0---------------------------------------|
A|--2--------------------3--------------------------------------------------|
E|--------------------------------------------------------------------------|
 (x5)
e|--------------------------------------------------------------------------|
B|--333333333333333555553333333333-----353----------------------------------|
G|--000000000222222222220000000000-----222----------------------------------|
D|--22222222000000000000022222222200000000----------------------------------|
A|--22222222-------------33333333322222-------------------------------------|
E|--------------------------------33333-------------------------------------|

(x4)
e|--------------------------------------------------------------------------|
B|--3-----------3-3------3------------3--353--------------------------------|
G|--0-----------2-2------0------------2p0222--------------------------------|
D|--2-----------0-0------2--------0---0--000--------------------------------|
A|--2--------------------3--------2-----------------------------------------|
E|--------------------------------3-----------------------------------------|

 (x5)
e|--------------------------------------------------------------------------|
B|--333333333333333555553333333333-----353----------------------------------|
G|--000000000222222222220000000000-----222----------------------------------|
D|--22222222000000000000022222222200000000----------------------------------|
A|--22222222-------------33333333322222-------------------------------------|
E|--------------------------------33333-------------------------------------|

(x2)
e|---------------------------------------------------------------------------|
B|--3-----------3-3------3------------3--353---------------------------------|
G|--0-----------2-2------0------------2p0222---------------------------------|
D|--2-----------0-0------2--------0---0--000---------------------------------|
A|--2--------------------3--------2------------------------------------------|
E|--------------------------------3------------------------------------------|


   (x5) (x3)    (x3)    (x3)
e|--------------------------------------------------------------------------|
B|-0h3-0h3-0h1p0-3-0h1p0-3/5--\3--------------------------------------------|
G|-0-0-0h2-------0-------0--------------------------------------------------|
D|-0h3-0h0-------2-------0--------------------------------------------------|
A|-0h2-----------3-------2--------------------------------------------------|
E|-----------------------3--------------------------------------------------|


fades out(end at the pulloff)
e|--------------------------------------------------------------------------|
B|--3-----------3-3------3------------3-------------------------------------|
G|--0---0~------2-2------0---0~-------2p0-----------------------------------|
D|--2-----------0-0------2--------0---0-------------------------------------|
A|--2--------------------3--------2-----------------------------------------|
E|--------------------------------3-----------------------------------------|
Suggest correction
Give kudos to tab author, rate the tab!
1 2 3 4 5
comments
print report bad tab
guest
You may want to rate the tab now too:
select rating
Wanna post a correction for this tab? Suggest correction