Oops, an error
Loading. Please wait.

Scars On Society - Scars On Society Tab

737 views 1 this week
no commentswrite comment
1 2 3 4 5
accurate
x 4
add to favorites
launch autoscroll
font size
0
reset
how to read this tab
guitar tuner
Tab Pro tools
  • play this tab
  • loop segment
  • change instrument
  • show fretboard
  • metronome
Autoscroll
slow
fast
+/-
esc
set tempo
stop
Tabbed by Kevin Konopi
 List:
1. Punks United
2. Stones in a Glass Apartment
3. 4 the Kids
4. Invisible
5. Unamed (actual name)


1.Punks United

|----------------------------------|
|----------------------------------|
|----------------------------------|
|---------5-5-5-5------------------|  x8
|-7-7-7-7-3-3-3-3-5-5-5-5-8-8-8-8--|
|-5-5-5-5---------3-3-3-3-6-6-6-6--|


|----------------------------------|
|----------------------------------|
|----------------------------------|
|---------9-9-9-9-5-5-5-5----------|  x4
|-7-7-7-7-7-7-7-7-3-3-3-3-7-7-7-7--|
|-5-5-5-5-----------------5-5-5-5--|


|----------------------------------|
|----------------------------------|
|----------------------------------|
|---------5-5-5-5------------------|  x4
|-7-7-7-7-3-3-3-3-5-5-5-5-8-8-8-8--|
|-5-5-5-5---------3-3-3-3-6-6-6-6--|


|----------------------------------|
|----------------------------------|
|----------------------------------|
|---------9-9-9-9-5-5-5-5----------|  x4
|-7-7-7-7-7-7-7-7-3-3-3-3-7-7-7-7--|
|-5-5-5-5-----------------5-5-5-5--|


|----------------------------------|
|----------------------------------|
|----------------------------------|
|---------5-5-5-5------------------|  x4
|-7-7-7-7-3-3-3-3-5-5-5-5-8-8-8-8--|
|-5-5-5-5---------3-3-3-3-6-6-6-6--|


|----------------------------------|
|----------------------------------|
|----------------------------------|
|---------9-9-9-9-5-5-5-5----------|  x4
|-7-7-7-7-7-7-7-7-3-3-3-3-7-7-7-7--|
|-5-5-5-5-----------------5-5-5-5--|

|----------------------------------|
|----------------------------------|
|----------------------------------|
|---------5-5-5-5------------------|  x4
|-7-7-7-7-3-3-3-3-5-5-5-5-8-8-8-8--|
|-5-5-5-5---------3-3-3-3-6-6-6-6--|


|----------------------------------|
|----------------------------------|
|----------------------------------|
|---------9-9-9-9-5-5-5-5----------|  x4
|-7-7-7-7-7-7-7-7-3-3-3-3-7-7-7-7--|
|-5-5-5-5-----------------5-5-5-5--|

|----------------------------------|
|----------------------------------|
|----------------------------------|
|---------5-5-5-5------------------|  x4
|-7-7-7-7-3-3-3-3-5-5-5-5-8-8-8-8--|
|-5-5-5-5---------3-3-3-3-6-6-6-6--|


2. Stones in a Glass Apartment

|---------------------------------|
|---------------------------------|
|---------------------------------|
|---------9-9-9-9-5-5-5-5-8-8-8-8-|    x8
|-7-7-7-7-7-7-7-7-3-3-3-3-6-6-6-6-|
|-5-5-5-5-------------------------|

Break with cow bell.

|---------------------------------|
|---------------------------------|
|---------------------------------|
|---------9-9-9-9-5-5-5-5-8-8-8-8-|    x12
|-7-7-7-7-7-7-7-7-3-3-3-3-6-6-6-6-|
|-5-5-5-5-------------------------|

3. 4 the Kids

|-------------------------------|
|-------------------------------|
|-------------------------------|
|-7-7-7-7---------5-5-5-5-------|  x20
|-5-5-5-5-7-7-7-7-3-3-3-3-5-3-5-|
|---------5-5-5-5---------3-1-3-|

Brief Solo:

|-10-10-10-10-------------8-8-8-8------|
|-------------10-10-10-10---------8-6-8|
|--------------------------------------|
|--------------------------------------|    x4
|--------------------------------------|
|--------------------------------------|


4. Invisible

|-----------|
|-----------|
|-----------|
|-----------|  x8
|-7-6-5-4-3-|
|-5-4-3-2-1-|


|---|
|---|
|---|
|-2-|  x24
|-2-|
|-0-|


|--------------------------------------------------------------|
|--------------------------------------------------------------|
|--------------------------------------------------------------|
|---------5-5-5-7-7-7-7-7-7-7-7--------------------------------|  x5
|-5-5-5-5-3-3-3-5-5-5-5-5-5-5-5--3-3-3-3-6-6-6-5-5-5-5-5-5-5-5-|
|-3-3-3-3------------------------1-1-1-1-4-4-4-3-3-3-3-3-3-3-3-|

|-------------------------|
|-------------------------|
|-------------------------|
|-3-3-3-3-5-5-5-5---------|  x4
|-1-1-1-1-3-3-3-3-7-6-5-4-|
|-----------------5-4-3-2-|


|---|
|---|
|---|
|-2-|  x24
|-2-|
|-0-|

|--------------------------------------------------------------|
|--------------------------------------------------------------|
|--------------------------------------------------------------|
|---------5-5-5-7-7-7-7-7-7-7-7--------------------------------|  x5
|-5-5-5-5-3-3-3-5-5-5-5-5-5-5-5--3-3-3-3-6-6-6-5-5-5-5-5-5-5-5-|
|-3-3-3-3------------------------1-1-1-1-4-4-4-3-3-3-3-3-3-3-3-|

|-------------------------|
|-------------------------|
|-------------------------|
|-3-3-3-3-5-5-5-5---------|  x4
|-1-1-1-1-3-3-3-3-7-6-5-4-|
|-----------------5-4-3-2-|

|-----------|
|-----------|
|-----------|
|-----------|  x2
|-7-6-5-4-3-|
|-5-4-3-2-1-|

5.Unamed

|-------------------------------|
|-------------------------------|
|-------------------------------|
|-------------------------------| x4
|-5-2-5-5-2-5-5-2-5-5-4-3-------|
|-------------------------5-4-3-|

|----------------------------------------------------------|
|----------------------------------------------------------|
|----------------------------------------------------------|
|---------5-5-5-5-7-7-7-7------------------5-5-5-5-7-7-7-7-| x4
|-7-7-7-7-3-3-3-3-5-5-5-5-7-7-5-5--7-7-7-7-3-3-3-3-5-5-5-5-|
|-5-5-5-5-----------------5-5-3-3--5-5-5-5-----------------|

Solo:

|-5-5-5-8-8-8-8-10-8-10-10^^10-8-5--5-5-5-8-5-8-10^-10-|
|------------------------------------------------------|
|------------------------------------------------------|
|------------------------------------------------------|  x2
|------------------------------------------------------|
|------------------------------------------------------|


|-17-17-17-17-17-17------------------17-17----------|
|-------------------13-13-15-13-10---------13-13-15-|
|----------------------------------12---------------|
|---------------------------------------------------|
|---------------------------------------------------|
|---------------------------------------------------|


|----------|  |----------|  |-17-|
|-13-12-10-|  |-15-13-12-|  |----|
|----------|  |----------|  |----|
|----------|x5|----------|x2|----|
|----------|  |----------|  |----|
|----------|  |----------|  |----|

End Solo

|----------------------------------------------------------|
|----------------------------------------------------------|
|----------------------------------------------------------|
|---------5-5-5-5-7-7-7-7------------------5-5-5-5-7-7-7-7-| x3
|-7-7-7-7-3-3-3-3-5-5-5-5-7-7-5-5--7-7-7-7-3-3-3-3-5-5-5-5-|
|-5-5-5-5-----------------5-5-3-3--5-5-5-5-----------------|


That's it!

Check them out at purevolume.com
comments
print report bad tab
I want to post or [tab]
guest
You may want to rate the tab now too:
select rating
Please do not post tabs as comments. Select "correction" instead!