Oops, an error
Loading. Please wait.

Second Hand Tragedy - The Recovery Bass Tab

62 views 1 this week
no commentswrite comment
1 2 3 4 5
please rate
add to favorites
launch autoscroll
font size
0
reset
guitar tuner
Autoscroll
slow
fast
+/-
esc
set tempo
stop
Help us to improve Ultimate-Guitar.com Take our survey!
×
Author
Difficulty
novice
Intro/Verse:
G|----------------|
D|----------------|
A|----------------| X7
E|0033-755--------|

ONE MEASURE PAUSE

Chorus:
G|----------------|----------------|----------------|----------------|
D|----------------|----------------|----------------|----------------|
A|----------------|3333333333333333|----------------|----------------|x4
E|0000000000000000|----------------|3333333333333333|5555555555555555|
(quarter notes are optional)

2 BEAT PAUSE

Verse:
G|----------------|
D|----------------|
A|----------------|  x4
E|0033-755--------|

ONE MEASURE PAUSE

CHORUS

Bridge:
G|----------------|
D|----------------|
A|-7-7-7-7--------|  x4
E|0-0-0-0---------|

CHORUS x 2

ONE MEASURE PAUSE

End:
G|----------------|
D|----------------|
A|-7-7-7-7--------|  x4
E|0-0-0-0---------|


Suggest correction
Give kudos to tab author, rate the tab!
1 2 3 4 5
comments
print report bad tab
guest
You may want to rate the tab now too:
select rating
Please do not post tabs as comments. Select "correction" instead!