Oops, an error
Loading. Please wait.

Serendepity - Empty Words Tab

131 views 1 this week
no commentswrite comment
1 2 3 4 5
3 more votes to show rating
add to favorites
launch autoscroll
font size
0
reset
how to read this tab
guitar tuner
×
Best way to learn
"Serendepity - Empty Words"
Autoscroll
slow
fast
+/-
esc
set tempo
stop
Author
----------------------------------------------------------------------------
                             Empty Words - Serendepity (new artist)
----------------------------------------------------------------------------
Tabbed by: Sam

Tuning: Normal

p  pull-off
~  vibrato

Chords 1 (x 4)
     Am      C      Em
e|----0------0-------0------|
B|----1------1-------0------|
G|----2------0-------0------|
D|----2------2-------2------|
A|----0------3-------2------|
E|----X------X-------0------|

Chords 2 (x 2)
     Dm     G    Em    Am
e|----1-----3-----0-----0---|
B|----3-----3-----0-----1---|
G|----2-----0-----0-----2---|
D|----0-----0-----2-----2---|
A|----X-----2-----2-----0---|
E|----X-----3-----0-----0---|

Chords 3 
     Am    G       Am    G    Em      Am   G       C   D   Am
e|----0----0---|----0----3----0---|----0---3---|---0---2----0---|
B|----1----3---|----1----3----0---|----1---3---|---1---3----1---|
G|----2----0---|----2----0----0---|----2---0---|---0---2----2---|
D|----2----0---|----2----0----2---|----2---0---|---2---0----2---|
A|----0----2---|----0----2----2---|----0---2---|---3---X----0---|
E|----X----3---|----X----3----0---|----X---3---|---X---X----X---|

Chords 4 (arpegio's)
      A     C     G     D
e|----0-----0-----3-----2---|
B|----2-----1-----3-----3---|
G|----2-----0-----0-----2---|
D|----2-----2-----0-----0---|
A|----0-----3-----2-----X---|
E|----X-----X-----3-----X---|

Guitar solo'y bits
e|------------------------|---------------|
B|------------8--6p--5~---|---8~--6~--5~--|
G|------5--7--------------|---------------|
D|---7--------------------|---------------|
A|------------------------|---------------|
E|------------------------|---------------|

(Chords 1)
What do i like about u
Why do i find u so cool
Is it the way u hurt me ur pain
U drive me mad am going insane

(Chords 2)
Hit me hurt me plz dont stop
kill me wound me till i drop

(Chords 1)
Give me pain i wont regret
I deserve just wot i get
I want pain 2 feel the hate
Hurt me baby i cant wait

(Chords 2)
Hit me hurt me plz dont stop
kill me wound me till i drop

(Chords 3)
I love u r just empty words
So like they fly just like birds
I want u now 2 strip me bare
Wot u think just dont care

(Chords 4)
N i've had words throughout my life
N i have bin cut by a knife
Dont say i love u there empty words
cus love is painful it really hurts

(Chords 1)
(instrumental)

(Chords 3)
I love u r just empty words
So like they fly just like birds
I want u now 2 strip me bare
Wot u think just dont care

(Chords 3)
An wen im lying on the floor
Wounded bruised n much much more
then i no r love will last
but bye bye time my life will of past

(Chords 1)
La la la
La la la
Suggest correction
Give kudos to tab author, rate the tab!
1 2 3 4 5
comments
print report bad tab
guest
You may want to rate the tab now too:
select rating
Wanna post a correction for this tab? Suggest correction