Oops, an error
Loading. Please wait.

Seth Lilly - Math Ninja bass

104 views 1 this week
no commentswrite comment
1 2 3 4 5
3 more votes to show rating
add to favorites
×
Save as Personal and add changes to this tab that will be seen only by you. Learn more ›
×
You can save this tab as Personal to edit and correct it or add notes. All changes will be seen only by you. Learn more »
launch autoscroll
font size
0
reset
guitar tuner
edit
Autoscroll
slow
fast
+/-
esc
set tempo
stop
Song: "Math Ninja"                                          |
Artist: Seth Lilly                                          |
Tabbed by: SethMegadefan (Seth Lilly)                       |
Find the original tune at either                            |
http://www.myspace.com/sethlilly/                           |
OR                                                          |
http://www.soundclick.com/bands/pagemusic.cfm?bandID=672677 |
============================================================

=========================================================
Tablature notation:                                      |
(0)              Ghost note (hold from previous measure) |
2h4              Hammeron 2nd fret to 4th                |
2/7              Slide from 2nd fret up to 7th           |
7\               Slide from 7th fret down                |
=========================================================

Standard Tuning (EADG)

Intro (4 measures of rest)
|----------------|----------------|----------------|----------------|
|----------------|----------------|----------------|----------------|
|----------------|----------------|----------------|----------------|
|----------------|----------------|----------------|----------------|

[0:08]
|----------------|----------------|----------------|----------------|
|----------------|----------------|----------------|----------------|
|----------------|----------------|----------------|----------------|
|0---------------|(0)-------------|----------------|----------------|

[0:14]
|----------------|----------------|----------------|----------------|
|----------------|----------------|----------------|----------------|
|----------------|----------------|----------------|----------------|
|0---------------|(0)-------------|----------------|0-0-0-0-0-0-0-0-|

[0:20]
|----------------|----------------|----------------|----------------|
|----2---0h2---2-|----2---0h2---2-|----2---0h2---2-|----2---0h2---2-|
|----------------|----------------|----------------|----------------|
|0-0---0-----0---|0-0---0-----0---|0-0---0-----0---|0-0---0-----0---|
"Maaaaaaaaaaaaath Ninja...         Maaaaaaaaaaaaath Ninja"

[[0:26]
|----2---0h2---2-|----2---0h2---2-|----2---0h2---2-|----2---0h2---2-|
|----------------|----------------|----------------|----------------|
|0-0---0-----0---|0-0---0-----0---|0-0---0-----0---|0-0---0-----0---|
|----------------|----------------|----------------|----------------|
"Maaaaaaaaaaaaath Ninja...         Maaaaaaaaaaaaath Ninja"

[[0:32]
|----------------|----------------|----------------|----------------|
|----2---0h2---2-|----2---0h2---2-|----2---0h2---2-|----2---0h2---2-|
|----------------|----------------|----------------|----------------|
|0-0---0-----0---|0-0---0-----0---|0-0---0-----0---|0-0---0-----0---|
"Maaaaaaaaaaaaath Ninja...         Maaaaaaaaaaaaath Ninja"

[0:38]
|----------------|----------------|----------------|----------------|
|5-----5-----5---|3---3-----------|----2---0h2---2-|----------------|
|----------------|--------1-1-1-1-|----------------|--2-2-2-2-2-2-2-|
|--3-3---3-3---3-|--1---1---------|0-0---0-----0---|----------------|
                                                                 "When-
(Verse 1)
[0:45]
|----------------|----------------|----------------|----------------|
|2-----2-----2---|2-----2-----2---|5---5---5---3---|2-----2-----2---|
|----------------|----------------|----------------|----------------|
|--0-0---0-0---0-|--0-0---0-0---0-|--3---3---3---1-|--0-0---0-0---0-|
ever...                            Maaaaaaaaaaaaath Ninja         When-

[0:51]
|----------------|----------------|----------------|----------------|
|2-----2-----2---|2-----2-----2---|5---5---5---3---|2-----2-----2---|
|----------------|----------------|----------------|----------------|
|--0-0---0-0---0-|--0-0---0-0---0-|--3---3---3---1-|--0-0---0-0---0-|
ever...                            Maaaaaaaaaaaaath Ninja"

(Chorus 1)
[0:56]
|3-----3-----3---|----------------|3-----3-----3---|----------------|
|----------------|2-----2-----2---|----------------|2-----2-----2---|
|--1-1---1-1---1-|----------------|--1-1---1-1---1-|----------------|
|----------------|--0-0---0-0---0-|----------------|--0-0---0-0---0-|
"Maaaaaaaaaaaaath Ninja       He's gooooonnnnnnnnna getcha"

[1:02]
|3-----3-----3---|----------------|----------------|----------------|
|----------------|3---3-----------|----2---0h2---2-|----------------|
|--1-1---1-1---1-|--------1-1-1-1-|----------------|2-1-2-3-2-1-2-3-|
|----------------|--1---1---------|0-0---0-----0---|----------------|
"Don't   try to   hide because you can't!"

[1:08]
|----------------|----------------|----------------|----------------|
|----2---0h2---2-|----2---0h2---2-|----2---0h2---2-|----2---0h2---2-|
|----------------|----------------|----------------|----------------|
|0-0---0-----0---|0-0---0-----0---|0-0---0-----0---|0-0---0-----0---|
"Maaaaaaaaaaaaath Ninja...         Maaaaaaaaaaaaath Ninja"

[1:15]
|----2---0h2---2-|----2---0h2---2-|----2---0h2---2-|----2---0h2---2-|
|----------------|----------------|----------------|----------------|
|0-0---0-----0---|0-0---0-----0---|0-0---0-----0---|0-0---0-----0---|
|----------------|----------------|----------------|----------------|
"Maaaaaaaaaaaaath Ninja...         Maaaaaaaaaaaaath Ninja"

[1:20]
|----------------|----------------|----------------|----------------|
|----2---0h2---2-|----2---0h2---2-|----2---0h2---2-|----2---0h2---2-|
|----------------|----------------|----------------|----------------|
|0-0---0-----0---|0-0---0-----0---|0-0---0-----0---|0-0---0-----0---|
"Maaaaaaaaaaaaath Ninja...         Maaaaaaaaaaaaath Ninja"

[1:26]
|----------------|----------------|----------------|----------------|
|5-----5-----5---|3---3-----------|----2---0h2---2-|----------------|
|----------------|--------1-1-1-1-|----------------|--2-2-2-2-2-2-2-|
|--3-3---3-3---3-|--1---1---------|0-0---0-----0---|----------------|
                                                                 "Some
(Verse 2)
[1:33]
|----------------|----------------|----------------|----------------|
|2-----2-----2---|2-----2-----2---|5---5---5---3---|2-----2-----2---|
|----------------|----------------|----------------|----------------|
|--0-0---0-0---0-|--0-0---0-0---0-|--3---3---3---1-|--0-0---0-0---0-|
bully's...                         Maaaaaaaaaaaaath Ninja         pro-

[1:38]
|----------------|----------------|----------------|----------------|
|2-----2-----2---|2-----2-----2---|5---5---5---3---|2-----2-----2---|
|----------------|----------------|----------------|----------------|
|--0-0---0-0---0-|--0-0---0-0---0-|--3---3---3---1-|--0-0---0-0---0-|
-fessor's...                       Maaaaaaaaaaaaath Ninja"

(Chorus 2)
[1:44]
|3-----3-----3---|----------------|3-----3-----3---|----------------|
|----------------|2-----2-----2---|----------------|2-----2-----2---|
|--1-1---1-1---1-|----------------|--1-1---1-1---1-|----------------|
|----------------|--0-0---0-0---0-|----------------|--0-0---0-0---0-|
"Maaaaaaaaaaaaath Ninja       Thought you could get away didn't ya?"

[1:50]
|3-----3-----3---|----------------|----------------|----------------|
|----------------|3---3-----------|----2---0h2---2-|----------------|
|--1-1---1-1---1-|--------1-1-1-1-|----------------|2-1-2-3-2-1-2-3-|
|----------------|--1---1---------|0-0---0-----0---|----------------|
"No more injustice in these hallways ever again!"

(Bridge)
[1:56]
|----------------|----------------|----------------|----------------|
|----------------|----------------|----------------|----------------|
|----------------|------------2/--|7-7-7-7-7-7-7-7-|7-5-------------|
|0-0-0-0-0-0-0-0-|0-0-0-0-0-0-----|----------------|----7-6-5-3-5-3-|

(Interlude)
[2:02]
|----------------|----------------|----------------|----------------|
|----------------|----------------|----------------|----------------|
|----------------|----------------|--------0-------|----------------|
|0-0-0-0-0-0-0-0-|2-2-2-2-2-2-2-2-|3-3-3-3----3--1-|0-0-0-0-0-0-0-0-|
"Only   fight  bad guys for the good of science and math

[2:09]
|----------------|----------------|----------------|----------------|
|----------------|----------------|----------------|----------------|
|----------------|----------------|--------0-------|----------------|
|0-0-0-0-0-0-0-0-|2-2-2-2-2-2-2-2-|3-3-3-3----3--1-|0-0-0-0-0-0-0-0-|
 Beat out their   stupid real good or it might come back

[2:14]
|----------------|----------------|0-0-0-0-2--0----|----------------|
|2-2-2-2-2-2-2-2-|4-4-4-4-4-4-4-4-|--------------3-|2-2-2-2-2-2-2-2-|
|----------------|----------------|----------------|----------------|
|----------------|----------------|----------------|----------------|
 Math  Ninja      preaches    the  lessons of   the past...     arm

[2:20]
|----------------|----------------|0-0-0-0-2--0----|----------------|
|2-2-2-2-2-2-2-2-|4-4-4-4-4-4-4-4-|--------------3-|2-2-2-2-2-2-2-2-|
|----------------|----------------|----------------|----------------|
|----------------|----------------|----------------|----------------|
 Thyself with knowledge and then you can kick  some ass!"

(Guitar Solo)
[2:27]
|----------------|----------------|----------------|----------------|
|----4---2h4---4-|----4---2h4---4-|----4---2h4---4-|----4---2h4---4-|
|----------------|----------------|----------------|----------------|
|2-2---2-----2---|2-2---2-----2---|2-2---2-----2---|2-2---2-----2---|

[2:32]
|----4---2-------|----4---2-------|----4---2-------|----4---2-------|
|------------4-3-|------------4-3-|------------4-3-|------------4-3-|
|2-2---2---2-----|2-2---2---2-----|2-2---2---2-----|2-2---2---2-----|
|----------------|----------------|----------------|----------------|

[2:38]
|----------------|----------------|----------------|----------------|
|----4---2h4---4-|----4---2h4---4-|----4---2h4---4-|----4---2h4---4-|
|----------------|----------------|----------------|----------------|
|2-2---2-----2---|2-2---2-----2---|2-2---2-----2---|2-2---2-----2---|

[2:44]
|----------------|----------------|----------------|----------------|
|7-----7-----7---|5---5-----------|----4---2h4---4-|------------0-1-|
|----------------|--------3-3-3-3-|----------------|4-3-4-5-4-3-----|
|--5-5---5-5---5-|--3---3---------|2-2---2-----2---|----------------|
                                                                 "A
(Verse 3)
[2:50]
|----------------|----------------|----------------|----------------|
|2-----2-----2---|2-----2-----2---|5---5---5---3---|2-----2-----2---|
|----------------|----------------|----------------|----------------|
|--0-0---0-0---0-|--0-0---0-0---0-|--3---3---3---1-|--0-0---0-0---0-|
 Trekkie...                        Maaaaaaaaaaaaath Ninja         And

[2:56]
|----------------|----------------|----------------|----------------|
|2-----2-----2---|2-----2-----2---|5---5---5---3---|2-----2-----2---|
|----------------|----------------|----------------|----------------|
|--0-0---0-0---0-|--0-0---0-0---0-|--3---3---3---1-|--0-0---0-0---0-|
Becky...                           Maaaaaaaaaaaaath Ninja

(Chorus 3)
[3:03]
|3-----3-----3---|----------------|3-----3-----3---|----------------|
|----------------|2-----2-----2---|----------------|2-----2-----2---|
|--1-1---1-1---1-|----------------|--1-1---1-1---1-|----------------|
|----------------|--0-0---0-0---0-|----------------|--0-0---0-0---0-|
 Maaaaaaaaaaaaath Ninja       He's nooooooooo one's bitch       Where-

[3:08]
|3-----3-----3---|----------------|----------------|----------------|
|----------------|3---3-----------|----2---0h2---2-|----------------|
|--1-1---1-1---1-|--------1-1-1-1-|----------------|2-1-2-3-2-1-2-3-|
|----------------|--1---1---------|0-0---0-----0---|----------------|
 -ever    he need be            he is!

(Chorus 1 again)
[3:14]
|3-----3-----3---|----------------|3-----3-----3---|----------------|
|----------------|2-----2-----2---|----------------|2-----2-----2---|
|--1-1---1-1---1-|----------------|--1-1---1-1---1-|----------------|
|----------------|--0-0---0-0---0-|----------------|--0-0---0-0---0-|
 Maaaaaaaaaaaaath Ninja       He's gooooonnnnnnnnna getcha

3:20]
|3-----3-----3---|----------------|----------------|----------------|
|----------------|3---3-----------|----2---0h2---2-|----------------|
|--1-1---1-1---1-|--------1-1-1-1-|----------------|2-1-2-3-2-1-2-3-|
|----------------|--1---1---------|0-0---0-----0---|----------------|
"Don't   try to   hide because you can't!"

(Outro)
[3:26]
|----------------|------|
|----------------|------|
|----------7-7-7-|7-----|
|0-0-0-0-0-------|------|

(Free time)
|----------------|------|
|----------------|------|
|7---------------|7\----|
|----------------|------|


Lyrics:

Maaaaaath Ninja [x6]

Whenever there's a nerd in pain watch out for the
MATH NINJA
Whenever there's a teacher in strain watch out for the
MATH NINJA

Maaaaaath Ninja
He's gooooonnnnnna getcha
Don't try to hide BECAUSE YOU CAN'T

Maaaaaaath Ninja [x6]

Some bully's puttin' kids in trash cans here comes the
MATH NINJA
The professor's misusing tangent watch out it's the
MATH NINJA

Maaaaath Ninja
Thought you could get away didn't ya?
No more injustice in these hallways EVER AGAIN

Only fight bad guys for the good of science and math
Beat out their stupid real good or it might come back
Math Ninja preaches the lessons of the past
Arm thyself with knowledge and then you can kick some ass

A Trekkie cries out in fear, what's that? It's the
MATH NINJA
And Becky can't see the board clearly, hooray! It's the
MATH NINJA

Maaaaath Ninja
He's nooooo one's bitch
Wherever he need be HE IS

Maaaaath Ninja
He's gooooonnnnnna getcha
Don't try to hide BECAUSE YOU CAN'T

^^^^^^^^^^^^^^^^^^^^^^^^^^^^^^^^^^^^^^^^^^^^^^
Enjoy the tab, fellow dudesters, and rock on! >

            
            
Suggest correction
Creating personal tab
Creating personal tab
You can edit any tab online and save it as your Personal.

You can edit, replace or remove any tab part or add personal notes – all changes will be seen only by you.

Personal tabs can be accessed anytime from any device, even offline.
Learn more »
Give kudos to tab author, rate the tab!
1 2 3 4 5
comments
print report bad tab
guest
You may want to rate the tab now too:
select rating
Wanna post a correction for this tab? Suggest correction