Oops, an error
Loading. Please wait.

Setu Firestorm - The Fade tab

930 views 3 this week
no commentswrite comment
1 2 3 4 5
3 more votes to show rating
add to favorites
×
Save as Personal and add changes to this tab that will be seen only by you. Learn more ›
×
You can save this tab as Personal to edit and correct it or add notes. All changes will be seen only by you. Learn more »
launch autoscroll
font size
0
reset
how to read this tab
guitar tuner
edit
Autoscroll
slow
fast
+/-
esc
set tempo
stop
---------------------------------------------------------
Setu Firestorm - The Fade 
---------------------------------------------------------

Credits to:

Setu Firestorm: for creating the song 

and

Tim Grif - He made the cover i Re-Tabbed -

Here it is: https://www.youtube.com/watch?v=7hxrADKhRb0


Tabs made by: takasutakagiu

Before we start i'm aware this is not 100% accurate

I tryed my best to create tabs for this awesomeness!

Hope you like it!



Intro: 

e |-0-|-2-|---------------------------|-2-|
B |-0-|-2-|---------------------------|-2-|
G |-0-|-2-|---------------------------|-2-|
D |-0-|-2-|---------------------------|-2-|
A |-0-|-2-|-2-2-2-2-3-3-3-3-5-5-5-5-9-|-2-|
E |-0-|-2-|---------------------------|-2-|

e |-----------------------------------------------------|
B |-----------------------------------------------------|
G |-----------------------------------------------------|
D |-9-9-9-9-9-12-12-9-9-9--15-14-14-14-14-12-12-9-9-9---|
A |-----------------------------------------------------|
E |-----------------------------------------------------|

@ 0:26

e |----------------------14----------15-----------------|
B |----------15-----------------------------------------|
G |-12-11-11----12-11-11----14-12-12----16-14-14-14-17--| X2
D |-----------------------------------------------------| 
A |-----------------------------------------------------|
E |-----------------------------------------------------|

e |-------------------|---------------------------------|
B |-------------------|---------------------------------|
G |-12-11-------------|---------------------------------|
D |-------12-7-9-7-12-|----5-7-12-10-9-5----------------|
A |-------------------|---------------------------------|
E |-------------------|---------------------------------|

e |-----------------------------------------------------|
B |-----------------------------------------------------|
G |-12-11-------12-11-----------------------------------|
D |-------12-12-------12-12--7-9-7-12--7-9-7-12---------|
A |-----------------------------------------------------|
E |-----------------------------------------------------|

e |-----------------------------------------------------|
B |-----------------------------------------------------|
G |-12-12-11-------12-11--------------------------------|
D |----------12-12-------12-12--7-9-7-12--7-9-7-12------|
A |-----------------------------------------------------|
E |-----------------------------------------------------|

e |-----------------------------------------------------|
B |-12(x8)-14-12-11(x8)-12(x7)-12b----------------------|
G |-----------------------------------------------------|
D |-----------------------------------------------------|
A |-----------------------------------------------------|
E |-----------------------------------------------------|

@ 1:03

e |-----------------------------------------------------|
B |----------------------12-13-12-------------15--------|
G |-11-12-12-12-14-12-12----------12-11-11-12-----------| X2
D |-----------------------------------------------------|
A |-----------------------------------------------------|
E |-----------------------------------------------------|

e |----------------------14----------15-----------------|
B |----------15-----------------------------------------|
G |-12-11-11----12-11-11----14-12-12----16-14-14-14-17--| X2
D |-----------------------------------------------------| 
A |-----------------------------------------------------|
E |-----------------------------------------------------|

e |-------------------|---------------------------------|
B |-------------------|---------------------------------|
G |-12-11-------------|---------------------------------|
D |-------12-7-9-7-12-|------12-10-9--------------------|
A |-------------------|-10-12--------10-----------------|
E |-------------------|---------------------------------|

e |-----------------------------------------------------|
B |-----------------------------------------------------|
G |-12-11-------12-11-----------------------------------|
D |-------12-12-------12-12--7-9-7-12--7-9-7-12---------|
A |-----------------------------------------------------|
E |-----------------------------------------------------|

e |-----------------------------------------------------|
B |-----------------------------------------------------|
G |-12-12-11-------12-11--------------------------------|
D |----------12-12-------12-12--7-9-7-12--7-9-7-12------|
A |-----------------------------------------------------|
E |-----------------------------------------------------|

You have to figure out this one, kind of pull-offs maybe

e |-----------------------------------------------------|
B |-----------------------------------------------------|
G |-13p12-12-12-13p12-12-12-14p11-11-11-14p11-11-11-----|
D |-----------------------------------------------------|
A |-----------------------------------------------------|
E |-----------------------------------------------------|

e |-----------------------------------------------------|
B |-----------------------------------------------------|
G |-13p12-12-12-13p12-12-12-12-12-12b-------------------|
D |-----------------------------------------------------|
A |-----------------------------------------------------|
E |-----------------------------------------------------|

@ 1:48

e |-----------------------------------------------------|
B |----------------------12-13-12-------------15--------|
G |-11-12-12-12-14-12-12----------12-11-11-12-----------| X2
D |-----------------------------------------------------|
A |-----------------------------------------------------|
E |-----------------------------------------------------|

e |-----------------------------------------------------|
B |-----------------------------------------------------|
G |-12-11-11-11-13-11-11-11-14-12-12-12-16-14-14-14-17--| X2
D |-----------------------------------------------------|
A |-----------------------------------------------------|
E |-----------------------------------------------------|

In this part:

Every X means you stop the string sound

e |-----------------------------------------------------|
B |-----------------------------------------------------|
G |-11-11-X(x5)-11-11-14-11-12(x5)-14-12-11(x5)---------|
D |-----------------------------------------------------|
A |-----------------------------------------------------|
E |-----------------------------------------------------|

e |-----------------------------------------------------|
B |-----------------------------------------------------|
G |-12-12-X(x4)-12-12-14-12--11-11-X(x3)-11-11-14-11----|
D |-----------------------------------------------------|
A |-----------------------------------------------------|
E |-----------------------------------------------------|

e |-----------------------------------------------------|
B |-----------------------------------------------------|
G |-12(x8)-11(x8)-12(x5)-11-9-7~--/12(x8)-11(x8)-12-11--|
D |-----------------------------------------------------|
A |-----------------------------------------------------|
E |-----------------------------------------------------|

Solo:

e |-----------------------------------------------------|
B |-----------------------------------------------------|
G |-16-14-14----16-14-14-----19-17-17----19-17-17-------|
D |----------14----------14-----------17----------17----|
A |-----------------------------------------------------|
E |-----------------------------------------------------|

e |-----------------------------------------------------|
B |-------------------------22-20-22-20-22-20-22-20-----|
G |-22-20-22-20-22-20-22-20-----------------------------|
D |-----------------------------------------------------|
A |-----------------------------------------------------|
E |-----------------------------------------------------|

e |-----------------------------------------------------|
B |-22-20-20-20----22-20-20-20--------------------------|
G |-------------19-------------19-----------------------|
D |-----------------------------------------------------|
A |-----------------------------------------------------|
E |-----------------------------------------------------|

e |-----------------------------------------------------|
B |-------------------------22-20-22-20-22-20-22-20-----|
G |-22-20-22-20-22-20-22-20-----------------------------|
D |-----------------------------------------------------|
A |-----------------------------------------------------|
E |-----------------------------------------------------|

e |-------|---------------------------------------------|
B |-22-20-|-20-22-22-22-22-20--20-----------------------|
G |-------|------------------19-------------------------|
D |-------|---------------------------------------------|
A |-------|---------------------------------------------|
E |-------|---------------------------------------------|

Bridge (?) PALM MUTED!

e |-----------------------------------------------------|
B |-----------------------------------------------------|
G |-----------------------------------------------------|
D |-----------------------------------------------------|
A |-----------------------------------------------------|
E |--9-8-7(x4)--10-10-10-10-10-7-7-7-7-7---9-8-7(x5)----|

Last bit of Bridge UNMUTED!

e |-----------------------------------------------------|
B |-----------------------------------------------------|
G |-----------9-9-9-9-9---------------------------------|
D |-9-9-9-9-9-------------------------------------------|
A |-----------------------------------------------------|
E |-----------------------------------------------------|

Ending:

Play this whole part three times and you're done!

e |-----------------------------------------------------|
B |----------------------12-13-12-------------15--------|
G |-11-12-12-12-14-12-12----------12-11-11-12-----------| X2
D |-----------------------------------------------------|
A |-----------------------------------------------------|
E |-----------------------------------------------------|

e |----------------------14----------15-----------------|
B |----------15-----------------------------------------|
G |-12-11-11----12-11-11----14-12-12----16-14-14-14-17--| X2
D |-----------------------------------------------------| 
A |-----------------------------------------------------|
E |-----------------------------------------------------|


EDIT: Corrected some parts, which now sounds just as the song, and corrected the tuning, from standard to drop c.

            
            
Suggest correction
Creating personal tab
Creating personal tab
You can edit any tab online and save it as your Personal.

You can edit, replace or remove any tab part or add personal notes – all changes will be seen only by you.

Personal tabs can be accessed anytime from any device, even offline.
Learn more »
Give kudos to tab author, rate the tab!
1 2 3 4 5
comments
print report bad tab
guest
You may want to rate the tab now too:
select rating
Wanna post a correction for this tab? Suggest correction