Oops, an error
Loading. Please wait.

Short Circuit - Fade Away bass

129 views 3 this week
no commentswrite comment
1 2 3 4 5
3 more votes to show rating
add to favorites
×
Save as Personal and add changes to this tab that will be seen only by you. Learn more ›
×
You can save this tab as Personal to edit and correct it or add notes. All changes will be seen only by you. Learn more »
launch autoscroll
font size
0
reset
guitar tuner
edit
Autoscroll
slow
fast
+/-
esc
set tempo
stop
Author
-------------------------------------------------------------------------------
			     FADE AWAY - Short Circuit
-------------------------------------------------------------------------------

Tabbed By : Emmett


Tuning: Drop-D D-A-D-G

This is the guide for the demo me and travis made of "Fade Away"


Fig.1: (Time: 0:00-0:08) Travis plays intro. You do nothing.


Fig.2: (Time: 0:08-0:14) You follow the rhythm guitar part, doing staccato shots of each note.
G|-------------------------------------------------------------------------|
D|-------------------------------------------------------------------------|
A|-------------------------------------------------------------------------|
D|--0----7--5--3-2--0----7--5--3-2--0--------------------------------------|


Fig.3: (Time: 0:14-0:25) Sorta the same deal, except play for the full number of beats 
of just staccato shots on the first beat.
G|-------------------------------------------------------------------------|
D|-------------------------------------------------------------------------|
A|-------------------------------------------------------------------------|
D|--0-000000--7-00-5-00-3-2--0-000000--7-00-5-00-3-2-----------------------|

G|-------------------------------------------------------------------------|
D|-------------------------------------------------------------------------|
A|-------------------------------------------------------------------------|
D|--0-000000--7-00--5-00-3-2--0-000000--7-00-5-00-3-2----------------------|


Fig.4: (Time: 0:25-0:39) Same deal as above, but with a different ending. Follow the 
guitar.
G|-------------------------------------------------------------------------|
D|-------------------------------------------------------------------------|
A|-------------------------------------------------------------------------|
D|--0-000000--7-00-5-00-3-2--0-000000--7-00-5-00-3-2-----------------------|

G|-------------------------------------------------------------------------|
D|-------------------------------------------------------------------------|
A|-------------------------------------------------------------------------|
D|--0-000000--7-00--5-00-3-2--0-000000--7--8--5--12--------------|


Fig.5: (Time: 0:39-1:02)This is the verse. It is the same for all the verses except the 
one. Except with different words.
G|-------------------------------------------------------------------------|
D|-------------------------------------------------------------------------|
A|------------------1--1---1----1---------------3---3--3--3----------------|
D|--0--0---0----0-------------------3---3-3--3-----------------------------|
         Strike a match and let it burn. (Whoaaaaa)

G|-------------------------------------------------------------------------|
D|-------------------------------------------------------------------------|
A|------------------1---1---1---1--------------------3---3---3--3----------|
D|--0--0---0---0----------------------3---3----3--3------------------------|
         Throw the flame towards the souls of the departed.

G|-------------------------------------------------------------------------|
D|-------------------------------------------------------------------------|
A|--------------1---1----1---1---------------3--3--3--3--------------------|
D|--0--0--0--0------------------3---3---3--3-------------------------------|
         As it burns you run away. (Whoaaaaaaaaa)

G|-------------------------------------------------------------------------|
D|-------------------------------------------------------------------------|
A|--------------------1---1----1-----1----------------------3---3---3--3---|
D|--0--0---0-----0------------------------3----3---3-----3-----------------|
         Through the flames you see your life has been forgotten.


Fig.6: (Time: 1:02-1:23) This is the part that separates the verses.
G|-------------------------------------------------------------------------|
D|-------------------------------------------------------------------------|
A|-------------------------------------------------------------------------|
D|--0----7--8--5--12----7-00-5-00-3-2-0-000000--7-00-5-00-3-2--------------|

G|-------------------------------------------------------------------------|
D|-------------------------------------------------------------------------|
A|-------------------------------------------------------------------------|
D|--0-000000-7-00-5-00-3-2-0-000000-7-00-5-00-3-2-0-000000-7-00-5-00-3-2---|
    Whoa..................................................

G|-------------------------------------------------------------------------|
D|-------------------------------------------------------------------------|
A|-------------------------------------------------------------------------|
D|--0-000000--7--8--5--12----------------------------------------|

Ok. At this point you play Fig.5 again, for the second verse (Time: 1:23-1:46).
Then you do Fig.6 again (Time: 1:47-2:11).
At the end of figure 6 you let the last note ring.


Fig.7 (Time: 2:11-2:26): Ok for this you just let the last note in fig.6 ring and fade 
wait for emmett to finish the riff and then come in with Fig.8.


Fig.8 (Time: 2:26-2:55): Ok this is the bridge kinda thing. Go with the rhythm guitar.
G|-------------------------------------------------------------------------|
D|-------------------------------------------------------------------------|
A|-------------------------------------------------------------------------|
D|--0-----5--3--2----0-----5--7--3----0-----5--3--2----0----5--7--3--------|

G|-------------------------------------------------------------------------|
D|-------------------------------------------------------------------------|
A|-------------------------------------------------------------------------|
D|--0-----5--3--2----0-----5--7--3----0-----5--3--2----0----5--7--3--------|

Really slow down at this part...again go with the rhythm guitar. Then just kinda give er 
the open D at the end there. (Time: 2:55-3:10)
G|-------------------------------------------------------------------------|
D|-------------------------------------------------------------------------|
A|-------------------------------------------------------------------------|
D|--0-----5--3--2---0000000000000000000000000000000000000000000000000------|


At this point we sorta go back to the beginning.
Fig.1 (Time: 3:10-3:13)
Fig.2 (Time: 3:13-3:22)
Fig.3 (Time: 3:22-3:33)
Fig.4 (Time: 3:33-3:47)
Fig.5 (Time: 3:47-4:10)
Fig.6 (Time: 4:10-4:31)

Alright

Fig.9: (Time:4:31-4:59) Alot like fig.5 except with the ending of fig.6.
G|-------------------------------------------------------------------------|
D|-------------------------------------------------------------------------|
A|--------------1--1--1-1--------------------------------------------------|
D|--0---0---0-0-----------3--3--3-3----7-7-7--8-8-8--5-5--12\--------------|

G|-------------------------------------------------------------------------|
D|-------------------------------------------------------------------------|
A|--------------1-----1---1---1--------------------------------------------|
D|--0---0---0-0--------------------3---3---3--3-----7-7-7--8-8-8--5-5--12\-|
      As far as we can tell your burning house is caving in.

G|-------------------------------------------------------------------------|
D|-------------------------------------------------------------------------|
A|--------------1-----1---1---1--------------------------------------------|
D|--0---0---0-0--------------------3---3---3--3-----7-7-7--8-8-8--5-5--12\-|
      Your mental state has gone insane.

G|-------------------------------------------------------------------------|
D|-------------------------------------------------------------------------|
A|--------------1-----1---1---1--------------------------------------------|
D|--0---0---0-0-----------------3---3---3--3---7-7-7--8-8-8--5-5--12\------|
      Your life crumbles as the foundations fall.

G|-------------------------------------------------------------------------|
D|-------------------------------------------------------------------------|
A|--------------1-----1---1---1--------------------------------------------|
D|--0---0---0-0--------------------3---3---3--3-----7-7-7--8-8-8--5-5--12\-|
      As you watch your life       fade          away.


Then you play Fig.4 again. (Time: 4:59-5:11)
G|-------------------------------------------------------------------------|
D|-------------------------------------------------------------------------|
A|-------------------------------------------------------------------------|
D|--0-000000--7-00-5-00-3-2--0-000000--7-00-5-00-3-2-----------------------|

G|-------------------------------------------------------------------------|
D|-------------------------------------------------------------------------|
A|-------------------------------------------------------------------------|
D|--0-000000--7-00--5-00-3-2--0-000000--7--8--5--12--------------|

And we're done.

| /  slide up
| \  slide down
| h  hammer-on
| p  pull-off
| ~  vibrato
| +  harmonic
| x  Mute note
===============================================================================
Suggest correction
Creating personal tab
Creating personal tab
You can edit any tab online and save it as your Personal.

You can edit, replace or remove any tab part or add personal notes – all changes will be seen only by you.

Personal tabs can be accessed anytime from any device, even offline.
Learn more »
Give kudos to tab author, rate the tab!
1 2 3 4 5
comments
print report bad tab
guest
You may want to rate the tab now too:
select rating
Wanna post a correction for this tab? Suggest correction