Oops, an error
Loading. Please wait.

Shuki Levy And Kussa Mahehi - Rock The Dragon bass

915 views 1 this week
no commentswrite comment
1 2 3 4 5
3 more votes to show rating
add to favorites
×
Save as Personal and add changes to this tab that will be seen only by you. Learn more ›
×
You can save this tab as Personal to edit and correct it or add notes. All changes will be seen only by you. Learn more »
launch autoscroll
font size
0
reset
guitar tuner
edit
Autoscroll
slow
fast
+/-
esc
set tempo
stop
Author
G|-------------------------------------------------------------|
D|-------------5b-------------------------------5b-------------|
A|--7-7--5--7-------7-7--5--7-----7-7--5--7----5----7-7--5--7--| X2
E|-------------------------------------------57----------------|

|---------------------------------------------------|
|-----------------14-13-10----------------14-16-19--|
|--12-15-14-11-12----------12-15-14-11-12-----------|
|---------------------------------------------------|

|-------------------------------------------------------------|
|-------------5b-------------------------------5b-------------|
|--7-7--5--7-------7-7--5--7-----7-7--5--7----5----7-7--5--7--|	X2
|-------------------------------------------57----------------|

|-----------------------------------------------14-16-17-19-21--|
|-----------------14-13-10----------------14-16-----------------|
|--12-15-14-11-12----------12-15-14-11-12-----------------------|
|---------------------------------------------------------------|

*NOTICES*
i'm not sure about things: in the first line the 57-5-5b, in the 2nd line the
14-16-19, and in the last line the 14-16-14-16-17-19-21...
in the 2nd line it's obvious you have to play every note 4 times really fast...

more info http://dragonball.wikia.com/wiki/Rock_the_Dragon

Please comment so i can make the tabs better

            
            
Suggest correction
Creating personal tab
Creating personal tab
You can edit any tab online and save it as your Personal.

You can edit, replace or remove any tab part or add personal notes – all changes will be seen only by you.

Personal tabs can be accessed anytime from any device, even offline.
Learn more »
Give kudos to tab author, rate the tab!
1 2 3 4 5
comments
print report bad tab
guest
You may want to rate the tab now too:
select rating
Wanna post a correction for this tab? Suggest correction