Oops, an error
Loading. Please wait.

Silhouette Behind The Gun - Crash N Burn bass

155 views 1 this week
1 commentread comment
1 2 3 4 5
2 more votes to show rating
add to favorites
×
Save as Personal and add changes to this tab that will be seen only by you. Learn more ›
×
You can save this tab as Personal to edit and correct it or add notes. All changes will be seen only by you. Learn more »
launch autoscroll
font size
0
reset
guitar tuner
edit
Autoscroll
slow
fast
+/-
esc
set tempo
stop
Author
Difficulty
------------------------------------------------------------------------
		CRASH'N'BURN - Silhouette Behind The Gun
------------------------------------------------------------------------

Tabbed By : Johnny Moshville
e-mail: johnleeroberts@gmail.com

Tuning: Standard EADG

INTRO/VERSE
    G5
G|-----------------------------------5-------|
D|--\5--5----5-------5--5-----5--7-----7--5--|
A|---------7-------7-------7-----------------|
E|-------------------------------------------|

    E5
G|-------------------------------------------|
D|-------------------------------------------|
A|---7--7--5-7-----5-7--7--0--0--5--5--7--7--|
E|-------------------------------------------|

    G5
G|-----------------------------------5-------|
D|--\5--5----5-------5--5-----5--7-----7--5--|
A|---------7-------7-------7-----------------|
E|-------------------------------------------|

    E5
G|-------------------------------------------|
D|-------------------------------------------|
A|---7--7--5-7-----5-7--7--0-----5-----7-----|
E|-------------------------------------------|


CHORUS
    C5                  D5                  G5
G|-------------------|-------------------|-------------------------------|
D|-------------------|-------------------|-------------------------------|
A|---3---3---3-3--3--|---5---5--5-5--5---|-------------------------------|
E|-------------------|-------------------|---3---3---3---0h3--3--3-3--3--|

    C5                  D5                  G5
G|-------------------|-------------------|-------------------------------|
D|-------------------|---------------3---|---5---5---5---3h5--5--5-3--0--|
A|---3---3---3-3--3--|---5---5--5-5------|-------------------------------|
E|-------------------|-------------------|-------------------------------|

    C5                  D5                  G5
G|-------------------|-------------------|-------------------------------|
D|-------------------|-------------------|-------------------------------|
A|---3---3---3-3--3--|---5---5--5-5--5---|-------------------------------|
E|-------------------|-------------------|---3---3---3---0h3--3--3-3--3--|

    C5                  D5                  G5
G|-------------------|-------------------|-----------------------------------|
D|-------------------|-------------------|-----------------------------------|
A|---3---3---3-3--3--|---5---5--5-5--5---|---10-10-10-10-10-10--10\-10\-10\--|
E|-------------------|-------------------|-----------------------------------|


MIDDLE 8
Play the verse riff twice through followed by:
    C5                        D5
G|----------------------------------------------------------|
D|-----------------------------------------------------3h5--|
A|--3--3--3--3-3-3--3--3--0h3h5--5--5--5--5-5-5--5--5-------|
E|----------------------------------------------------------|

    C5                        D5
G|-------------------------------------------------------------|
D|-------------------------------------------------------------|
A|--3--3--3--3-3-3--3--3--0h3h5--5--5--5--5-5-5--5--5--5/17\5--|
E|-------------------------------------------------------------|


ORDER
INTRO (Verse riff x 4)
VERSE 1 (Verse riff x 4)
CHORUS 1 (Chorus riff x 1)
VERSE 2 (Verse riff x 4)
CHORUS (Chorus riff x 1)
MIDDLE 8 (Verse riff x 2, Middle 8 riff x 1)
VERSE 3 (Verse riff x 4)
CHORUS (Chorus riff x 1)
End on low G:  E|---3---|


| /  slide up
| \  slide down
| h  hammer-on
| p  pull-off
| ~  vibrato
| +  harmonic
| x  Mute note
=========================================================================

            
            
Suggest correction
Creating personal tab
Creating personal tab
You can edit any tab online and save it as your Personal.

You can edit, replace or remove any tab part or add personal notes – all changes will be seen only by you.

Personal tabs can be accessed anytime from any device, even offline.
Learn more »
Give kudos to tab author, rate the tab!
1 2 3 4 5
comments
print report bad tab
1 comment total.
0 reply
Johnny_Ibanez 260 May 28, 2013 04:52 AM

Best bass line of all time.

OF ALL TIME.

guest
You may want to rate the tab now too:
select rating
Wanna post a correction for this tab? Suggest correction