Oops, an error
Loading. Please wait.

Silverline - Get It Right bass

320 views 1 this week
no commentswrite comment
1 2 3 4 5
3 more votes to show rating
add to favorites
×
Save as Personal and add changes to this tab that will be seen only by you. Learn more ›
×
You can save this tab as Personal to edit and correct it or add notes. All changes will be seen only by you. Learn more »
launch autoscroll
font size
0
reset
guitar tuner
edit
Autoscroll
slow
fast
+/-
esc
set tempo
stop
Author
Difficulty
Tabbed By: Flatline222
Silverline-Get it Right 



	Intro

Fb|-----------------|
Cb|-----------------|x3
Gb|-0-0-----3-3-----|
Db|-----1-1-----3-3-|

Fb|-------------------------|
Cb|-------------------------|x3
Gb|-0-0-----------3---------|
Db|-----1-1-1-1-----3-3-3-3-|

Fb|-------------|
Cb|-------------|
Gb|-3-3--2-2-3~-|
Db|-------------|

	Verse

Fb|-------------------------|
Cb|-------------------------|x3
Gb|-0-0---------3-3---------|
Db|-----1-1-1-1-----3-3-3-3-|

Fb|-------------|
Cb|-------------|
Gb|-3-3--5-5-3~-|
Db|-------------|

Fb|-------------------------|
Cb|-------------------------|x3
Gb|-0-0---------3-3---------|
Db|-----1-1-1-1-----3-3-3-3-|

Fb|----------------|
Cb|----------------|
Gb|-3-3--5-5-3--3~-|
Db|----------------|

	Chorus		

Fb|-------------------------|
Cb|-------------------------|x3
Gb|-0-0---------3-3---------|
Db|-----1-1-1-1-----3-3-3-3-|

Fb|-------------|
Cb|-------------|
Gb|-3-3--5-5-3~-|
Db|-------------|

Fb|-------------------------|
Cb|-------------------------|x3
Gb|-0-0---------3-3---------|
Db|-----1-1-1-1-----3-3-3-3-|

Fb|-------------|
Cb|-------------|
Gb|-3-3--5-5-3~-|
Db|-------------|

	Verse

Fb|-------------------------|
Cb|-------------------------|x3
Gb|-0-0---------3-3---------|
Db|-----1-1-1-1-----3-3-3-3-|

Fb|-------------|
Cb|-------------|
Gb|-3-3--5-5-3~-|
Db|-------------|

(guitar "intro" again)

	Chorus

Fb|-------------------------|
Cb|-------------------------|x3
Gb|-0-0-----------3---------|
Db|-----1-1-1-1-----3-3-3-3-|

Fb|-------------|
Cb|-------------|
Gb|-3-3--2-2-3~-|
Db|-------------|

Fb|-------------------------|
Cb|-------------------------|x3
Gb|-0-0-----------3---------|
Db|-----1-1-1-1-----3-3-3-3-|

Fb|-------------|
Cb|-------------|
Gb|-3-3--2-2-3~-|
Db|-------------|

	Bridge

(rest for the first two bars, guitar plays here)

Fb|------------------------------|
Cb|------------------------------|x2
Gb|-0-000----------3-333---------|
Db|--------1-1-1-1-------3-3-3-3-|

Fb|------------------------------|
Cb|------------------------------|x2
Gb|-0-000----------3-335---------|
Db|--------1-1-1-1-------3-3-3-3-|


Fb|---------------------------------------|
Cb|---------------------------------------|
Gb|-0-000----------3-333-3-3-3-3-3/10~----|
Db|--------1-1-1-1------------------------|

	Chorus

Fb|-------------------------|
Cb|-------------------------|x3
Gb|-0-0-----------3---------|
Db|-----1-1-1-1-----3-3-3-3-|

Fb|-------------|
Cb|-------------|
Gb|-3-3--2-2-3~-|
Db|-------------|

Fb|-------------------------|
Cb|-------------------------|x3
Gb|-0-0-----------3---------|
Db|-----1-1-1-1-----3-3-3-3-|

Fb|-------------|
Cb|-------------|
Gb|-3-3--2-2-3~-|
Db|-------------|

	Outro

Fb|-----------------|
Cb|-----------------|x3
Gb|-0-0-----3-3-----|
Db|-----1-1-----3-3-|

Fb|---------------|
Cb|---------------|
Gb|-0-0-----------|
Db|-----1-1--1-1~-|

            
            
Suggest correction
Creating personal tab
Creating personal tab
You can edit any tab online and save it as your Personal.

You can edit, replace or remove any tab part or add personal notes – all changes will be seen only by you.

Personal tabs can be accessed anytime from any device, even offline.
Learn more »
Give kudos to tab author, rate the tab!
1 2 3 4 5
comments
print report bad tab
guest
You may want to rate the tab now too:
select rating
Wanna post a correction for this tab? Suggest correction