Oops, an error
Loading. Please wait.

Simon Wakefield - I Wanna ukulele

15 views 1 this week
no commentswrite comment
1 2 3 4 5
3 more votes to show rating
add to favorites
×
Save as Personal and add changes to this tab that will be seen only by you. Learn more ›
×
You can save this tab as Personal to edit and correct it or add notes. All changes will be seen only by you. Learn more »
launch autoscroll
font size
0
reset
transpose
0
reset
simplify chords
display chords
guitar tuner
edit
Autoscroll
slow
fast
+/-
esc
set tempo
stop
Strumming
There is no strumming pattern for this song yet. and get +5 IQ
Simon Wakefield - I Wanna
Tuning: Standard
Capo 2nd Fret


INTRO

A          Esus          A          Esus                          x2


VERSE 1:

        A                   Esus
I wanna go to a place where no-one knows me

      A               Esus
Where nobody knows my face or family

  A                     Esus
A place i can run to, a place i can hide from

A                    Esus
All of the shit back home..

        A                Esus
I wanna travel away with no-one around me

        A                           Esus
And the weight of the world resting on my shoulders

   A                             Esus
To somewhere i'll find out, that someone i can be

    A                       Esus
The person that you used to see..


CHORUS:

I wanna be..

G
On my own, left alone

D
Left to be, who i can be

G
On my own, left alone

D
Left to be, who i can be


VERSE 2:

A                  Esus
Run to a town that i have not been

     A                 Esus
With no-one to tell me how life should be

A                    Esus
Somewhere for me to, somewhere to deal with

A                      Esus
All of the things i've done..

        A                       Esus
I wanna scream at the top of my aching lungs

A                        Esus
Scream to the world that i can change

   A                            Esus
A change that i'll make cus, a change that i'll stick to

   A                        Esus
A change that i've made for you...


CHORUS:

I wanna be..

G
On my own, left alone

D
Left to be, who i can be

G
On my own, left alone

D
Left to be, who i can be


BRIDGE:

e|------------------------------------------------------------|
B|------2--------------0--------------2--------------0--------|
G|--------2---2----------2---2----------2---2----------2---2--|
D|--2-2-----2------2-2-----2------2-2-----2------2-2-----2----|    x4
A|------------------------------------------------------------|
E|------------------------------------------------------------|

e|------------------------------------------------------------|
B|------0--------------0--------------0--------------0--------|
G|--------2---2----------2---2----------2---2----------2---2--|
D|--2-2-----2------2-2-----2------2-2-----2------2-2-----2----|    
A|------------------------------------------------------------|
E|------------------------------------------------------------|

A          Esus          A          Esus                          x2


OUTRO:


        A                   Esus
I wanna go to a place where no-one knows me

      A               Esus
Where nobody knows my face or family

   A                    Esus
A place i can run to, a place i can hide out

   A                   A~
A place i can call my home

            
            
Suggest correction
Creating personal tab
Creating personal tab
You can edit any tab online and save it as your Personal.

You can edit, replace or remove any tab part or add personal notes – all changes will be seen only by you.

Personal tabs can be accessed anytime from any device, even offline.
Learn more »
Give kudos to tab author, rate the tab!
1 2 3 4 5
comments
print report bad tab
guest
Wanna post a correction for this tab? Suggest correction