Oops, an error
Loading. Please wait.

Sing Praises To Jehovah - 13 Christian Dedication Tab

13,447 views 6 this week
7 commentsread comments
1 2 3 4 5
excellent!
x 6
add to favorites
launch autoscroll
font size
0
reset
how to read this tab
guitar tuner
Tab Pro tools
  • play this tab
  • loop segment
  • change instrument
  • show fretboard
  • metronome
×
Best way to learn
"Sing Praises To Jehovah - 13 Christian Dedication"
Autoscroll
slow
fast
+/-
esc
set tempo
stop
Contributor
Sing Praises to Jehovah

Kingdom Melody #13

TAB by Stanilemgo

Copyright, 1984, by 
Watch Tower Bible and Tract Society
of Pennsylvania


E||-------------3---|--0---1--0-------|--0--3-----------|--5---5--3-------|      
B||-------------1---|---------1--3--1-|-----1-------1---|--6------3---3---|  
G||-------------0---|---------0-------|-----0-------0---|--5------4-------|  
D||-----------------|-----------------|-----2-------2---|-----------------|  
A||-------------3---|--3------3-------|--3----------3---|--8------5-------|  
E||-----------------|-----------------|-----------------|-----------------|  


|--0--------------|--1---1--0-------|-----------------|--0---------0----|      
|--1----------1---|--3------3---0---|--3--1--1--3-----|--1--3--3--------|      
|--0--------------|--2------0-------|--2--------------|--2--------------|      
|-----------------|--0--------------|--2-----2--------|--0-----0--------|        
|--3--------------|---------2-------|--0--------------|-----------------|       
|-----------------|-----------------|-----------------|-----------------|     


|--1---------3----|--0---1--0-------|--0--3-----------|--5---5--7-------|        
|--1---------3----|---------1--3--1-|-----1-------1---|--6------9-------|        
|--1---------4----|---------0-------|-----0-------0---|--5------7---9---|        
|-----------------|-----------------|-----2-------2---|-----------------|        
|--1--------------|--3------3-------|--3----------3---|--8------7-------|        
|------------3----|-----------------|-----------------|-----------------| 


|--8--------------|--5---7--8--3----|--0--------------|--0--0--1--0-----|                        
|--5--------------|--6---------1----|--3---3--1---3---|--1--------0--3--|        
|--5---------5----|--5---------0--9-|--1------2-------|--0--------0-----|        
|-----------------|-----------------|-----------------|-----------------|        
|-----------------|--8---------3----|--2------0-------|--3--------------|        
|--5--------------|-----------------|-----------------|-----------3-----|


|-----------------|
|--1--------------|  
|--0--------------|  
|--2--------------|      Repeat all 4 times
|--3--------------|  
|-----------------|            
comments
print report bad tab
7 comments total. Showing first comments.
+1 reply
i8xler8 wrote on August 18 2008, 11:53 am

this is realy awesome thanks!!!!
francisco-Eagle Crest cong. San Antiono, TX,USA

+1 reply
AtreyuAlive60 wrote on October 2 2008, 04:30 pm

this is sweet. thanks! Newark Spanish Cong. (CA)

+1 reply
Mistermark wrote on February 10 2009, 10:13 am

i cant beleive someone's put these on this site

Speke cong. Liverpool, England

I want to post or [tab]
guest
You may want to rate the tab now too:
select rating
Please do not post tabs as comments. Select "correction" instead!