Oops, an error
Loading. Please wait.

Six Gallery - Edie The Marble Faun Bass Tab

390 views 1 this week
no commentswrite comment
1 2 3 4 5
please rate
add to favorites
launch autoscroll
font size
0
reset
guitar tuner
Autoscroll
slow
fast
+/-
esc
set tempo
stop
Help us to improve Ultimate-Guitar.com Take our survey!
×
Author
Difficulty
novice
-------------------------------------------------------------------------------
                             EDIE & THE MARBLE FAUN - Six Gallery
-------------------------------------------------------------------------------
Tabbed by: seapuppy     
E-mail: screamoman55@hotmail.com

Tuning: Standard

Quiet intro, just bass drum and guitar
0:00 - 0:14
G|---------------------------------------------------------------------------|
D|---------------------------------------------------------------------------|
A|---------------------------------------------------------------------------|
E|---------------------------------------------------------------------------|

0:15 - 0:27
G|---------------------------------------------------------------------------|
D|---------------------------------------------------------------------------|
A|-4-4-4-(4)-----------------------------------------------------------------|
E|--------------0-0-0-(0)-/7-7-7-(7)-----0-----------------------------------|

0:28 - 0:41
G|---------------------------------------------------------------------------|
D|---------------------------------------------------------------------------|
A|---------------------------------------------------------------------------|
E|-7-7-7-7-7-7--\(4)---------------------------------------------------------|

0:42 - 1:12
G|---------------------------------------------------------------------------|
D|---------------------------------------------------------------------------|
A|-4-4-4-4-4-4-/7-7-7-7-7-7-7-7-7-7---\4-4-4-4-4-4---------------------------|
E|-------------------------------------------------5-5-5-5-5-(p0)------------|

1:13 - 1:56
G|---------------------------------------------------------------------------|
D|---------------------------------------------------------------------------|
A|-(2)----(/6)----(/7)-------------------------------------------------------|
E|-(0)----(0)-----(0)--------------------------------------------------------|

1:57 - 2:28
First time do this
G|---------------------------------------------------------------------------|
D|---------------------------------------------------------------------------|
A|-4--4--4-4-4---------------------------------------------------------------|
E|----------------0--0--0-0-0--4--4--4-4-4--/7--7--7-7-7-p0------------------|

Then for the next amount of times, do this
G|---------------------------------------------------------------------------|
D|---------------------------------------------------------------------------|
A|-4--4--4-4-4---------------------------------------------------------------|
E|----------------0--0--0-0-0--4--4--4-4-4--/7--7--7-7-7---------------------|

2:29 - 2:33
G|---------------------------------------------------------------------------|
D|---------------------------------------------------------------------------|
A|-(4)-----------------------------------------------------------------------|
E|---------------------------------------------------------------------------|

2:34 - 2:45   
G|---------------------------------------------------------------------------|
D|---------------------------------------------------------------------------|
A|-4--4--4-4-4---------------------------------------------------------------|
E|----------------0--0--0-0-0--4--4--4-4-4--/7--7--7-7-7-p0------------------|

2:45 - 3:13
G|---------------------------------------------------------------------------|
D|---------------------------------------------------------------------------|
A|-4--4--4-4-4---------------------------------------------------------------|
E|----------------0--0--0-0-0--4--4--4-4-4--/7--7--7-7-7---------------------|


You need to listen for the temp, as I may have not put enough notes in, but
it shouldn't be too hard to figure out. Great band, buy their album!


| ( )  let ring
| /  slide up
| \  slide down
| h  hammer-on
| p  pull-off
| ~  vibrato
| +  harmonic
| x  Mute note
===============================================================================
Suggest correction
Give kudos to tab author, rate the tab!
1 2 3 4 5
comments
print report bad tab
guest
You may want to rate the tab now too:
select rating
Wanna post a correction for this tab? Suggest correction