Oops, an error
Loading. Please wait.

Six Shooter - Coyote Kisses tab

2,566 views 69 this week
1 commentread comment
1 2 3 4 5
x 3
add to favorites
×
Save as Personal and add changes to this tab that will be seen only by you. Learn more ›
×
You can save this tab as Personal to edit and correct it or add notes. All changes will be seen only by you. Learn more »
launch autoscroll
font size
0
reset
how to read this tab
guitar tuner
edit
Autoscroll
slow
fast
+/-
esc
set tempo
stop
-------------------------------------------------------------------------------
                             Six- Shooter - Coyote Kisses
-------------------------------------------------------------------------------
Tabbed by: Dries Delanghe
E-mail: dries.delanghe.1998@gmail.com

Tuning: Drop D  (D A D G B e)
capo 1
intro:

e|---------------------------------------------------------------------------|
B|---------------------------------------------------------------------------|
G|---------------------------------------------------------------------------|
D|---------------------------------------------------------------------------|
A|-3-3-1-3-1-----------3-3-1-3-1-------3-3-1-3-1-----------1-1-1-3-1---------|
D|-----------6-3-3-3-6-----------6-3-3-----------6-3-3-3-6-----------6-3-3---|

e|---------------------------------------------------------------------------|
B|---------------------------------------------------------------------------|
G|-5-5-3-5-3-----------5-5-3-5-3-------5-5-3-5-3-----------3-3-3-5-3---------|
D|-----------6-3-3-3-6-----------6-3-3-----------6-3-3-3-6-----------6-3-3---|
A|---------------------------------------------------------------------------|
D|---------------------------------------------------------------------------|


Verse

e|-3--3--3-3-6-6-3--3---6-(x8)-8-(x5)--6--3--3--3-3-6-6-3--3--1-(x8)--3-(x5)-| (x-2)--|
B|-3--3--3-3-6-6-3--3---6------8-------6--3--3--3-3-6-6-3--3--1-------3---------------|
G|-3--3--3-3-6-6-3--3---6------8-------6--3--3--3-3-6-6-3--3--1-------3---------------|
D|-3--3--3-3-6-6-3--3---6------8-------6--3--3--3-3-6-6-3--3--1-------3---------------|
A|-3--3--3-3-6-6-3--3---6------8-------6--3--3--3-3-6-6-3--3--1-------3---------------|
D|-3--3--3-3-6-6-3--3---6------8-------6--3--3--3-3-6-6-3--3--1-------3---------------|


refrain

e|-3-3-x-x-x-x--3-3-x-x--1-1-x-x-x-x--8-8-6-3-3-x-x-x-x--3-3-x-x--1-1-x-x-x-x--3-3---------------|
B|-3-3-x-x-x-x--3-3-x-x--1-1-x-x-x-x--8-8-6-3-3-x-x-x-x--3-3-x-x--1-1-x-x-x-x--3-3---------------|
G|-3-3-x-x-x-x--3-3-x-x--1-1-x-x-x-x--8-8-6-3-3-x-x-x-x--3-3-x-x--1-1-x-x-x-x--3-3---------------|
D|-3-3-x-x-x-x--3-3-x-x--1-1-x-x-x-x--8-8-6-3-3-x-x-x-x--3-3-x-x--1-1-x-x-x-x--3-3---------------| x2
A|-3-3-x-x-x-x--3-3-x-x--1-1-x-x-x-x--8-8-6-3-3-x-x-x-x--3-3-x-x--1-1-x-x-x-x--3-3---------------|
D|-3-3-x-x-x-x--3-3-x-x--1-1-x-x-x-x--8-8-6-3-3-x-x-x-x--3-3-x-x--1-1-x-x-x-x--3-3---------------|

e|-3--3--3-3-6-6-3--3---6-(x-8)-8-(x-5)--6--3--3--3-3-6-6-3--3--1----------------|
B|-3--3--3-3-6-6-3--3---6-------8--------6--3--3--3-3-6-6-3--3--1------------------|
G|-3--3--3-3-6-6-3--3---6-------8--------6--3--3--3-3-6-6-3--3--1------------------|
D|-3--3--3-3-6-6-3--3---6-------8--------6--3--3--3-3-6-6-3--3--1------------------|
A|-3--3--3-3-6-6-3--3---6-------8--------6--3--3--3-3-6-6-3--3--1------------------|
D|-3--3--3-3-6-6-3--3---6-------8--------6--3--3--3-3-6-6-3--3--1------------------|

repeat verse

repeat refrain

the end is just repeating the parts of the intro, I think you can figure that one out
I have faith is you ;)

and at last, repeat refrain


************************************

| /   slide up
| \   slide down
| h   hammer-on
| p   pull-off
| ~   vibrato
| +   harmonic
| x-   Mute note
| b   Bend
| pb  Pre-bend
| br  Bend release
| pbr Pre-bend release
| brb Bend release bend

************************************

            
            
Suggest correction
Creating personal tab
Creating personal tab
You can edit any tab online and save it as your Personal.

You can edit, replace or remove any tab part or add personal notes – all changes will be seen only by you.

Personal tabs can be accessed anytime from any device, even offline.
Learn more »
Give kudos to tab author, rate the tab!
1 2 3 4 5
comments
print report bad tab
1 comment total.
0 reply
360Guitarrock 10 Apr 17, 2016 05:48 AM

The intro is definitely in standard tuning, and not in drop D (other than that it's pretty good).
The verse and refrain don't make any sense.

guest
You may want to rate the tab now too:
select rating
Wanna post a correction for this tab? Suggest correction