Oops, an error
Loading. Please wait.

Sjo455 - Horrorland Tab

1 view 1 this week
no commentswrite comment
1 2 3 4 5
3 more votes to show rating
add to favorites
launch autoscroll
font size
0
reset
how to read this tab
guitar tuner
Autoscroll
slow
fast
+/-
esc
set tempo
stop
Help us to improve Ultimate-Guitar.com Take our survey!
×
Author
[Intro]

e|-----------------------------------------------------------------|
B|-----------------------------------------------------------------|
G|----------------------------------------------12b12b12b12b12b12b-|
D|-----------------------------------------------------------------|
A|-----------------------------------------------------------------|
E|--5-6-5-6-7-5-6-5-6-7-5-6-5-6-7-5-6-5-6-7------------------------|


[Verse]
I gave the man my tickets.I could hear crikets.
e|----------------------------------------------|
B|----------------------------------------------|
G|----------------------------------------------|
D|----------------------------------------------|
A|----------------------------------------------|
E|--5-6-5-6-7-5-6-5-6-7-5-6-5-6-7-5-6-5-6-7-----|

[Verse]
They made their sound all around me.
e|----------------------------------------------|
B|----------------------------------------------|
G|----------------------------------------------|
D|----------------------------------------------|
A|----------------------------------------------|
E|--5-6-5-6-7-5-6-5-6-7-5-6-5-6-7-5-6-5-6-7-----|

[Verse]
I was pushed forward by the woman behind me.
e|----------------------------------------------|
B|----------------------------------------------|
G|----------------------------------------------|
D|----------------------------------------------|
A|----------------------------------------------|
E|--5-6-5-6-7-5-6-5-6-7-5-6-5-6-7-5-6-5-6-7-----|

[Verse]
She told me to move up and go into horrorland.
e|----------------------------------------------|
B|----------------------------------------------|
G|----------------------------------------------|
D|----------------------------------------------|
A|----------------------------------------------|
E|--5-6-5-6-7-5-6-5-6-7-5-6-5-6-7-5-6-5-6-7-----|

[Verse]
Where was my mom? Where was my dad?
e|----------------------------------------------|
B|----------------------------------------------|
G|----------------------------------------------|
D|----------------------------------------------|
A|----------------------------------------------|
E|--5-6-5-6-7-5-6-5-6-7-5-6-5-6-7-5-6-5-6-7-----|

[Verse]
Had they left me all alone at horrorland?
e|----------------------------------------------|
B|----------------------------------------------|
G|----------------------------------------------|
D|----------------------------------------------|
A|----------------------------------------------|
E|--5-6-5-6-7-5-6-5-6-7-5-6-5-6-7-5-6-5-6-7-----|

[Verse]
Well i did not know oh where i was to go.
e|----------------------------------------------|
B|----------------------------------------------|
G|----------------------------------------------|
D|----------------------------------------------|
A|----------------------------------------------|
E|--5-6-5-6-7-5-6-5-6-7-5-6-5-6-7-5-6-5-6-7-----|

[Verse]
I walked up to the rollercoaster. 
e|----------------------------------------------|
B|----------------------------------------------|
G|----------------------------------------------|
D|----------------------------------------------|
A|----------------------------------------------|
E|--5-6-5-6-7-5-6-5-6-7-5-6-5-6-7-5-6-5-6-7-----|

[Verse]
I was pushed from behind. I fell onto the tracks.
e|----------------------------------------------|
B|----------------------------------------------|
G|----------------------------------------------|
D|----------------------------------------------|
A|----------------------------------------------|
E|--5-6-5-6-7-5-6-5-6-7-5-6-5-6-7-5-6-5-6-7-----|

[Verse]
Then i saw my mom and dad. They were crying.
e|----------------------------------------------|
B|----------------------------------------------|
G|----------------------------------------------|
D|----------------------------------------------|
A|----------------------------------------------|
E|--5-6-5-6-7-5-6-5-6-7-5-6-5-6-7-5-6-5-6-7-----|

[Verse]
They were looking all around for me.
e|----------------------------------------------|
B|----------------------------------------------|
G|----------------------------------------------|
D|----------------------------------------------|
A|----------------------------------------------|
E|--5-6-5-6-7-5-6-5-6-7-5-6-5-6-7-5-6-5-6-7-----|

[Verse]
I called, i called out for them   and
e|----------------------------------------------|
B|----------------------------------------------|
G|----------------------------------------------|
D|----------------------------------------------|
A|----------------------------------------------|
E|--5-6-5-6-7-5-6-5-6-7-5-6-5-6-7-5-6-5-6-7-----|

[Solo]

e|--------------------------------------------------------------------------------------------|
B|-----------------------------------------12-13-------13-------------------------------------|
G|-----------------------------11-12-13-------10-11-12----14----13-11-------------------------|
D|--------------------------------------12----11----------------------12----------------------|
A|-----------------------------------------------------------11-------------------------------|
E|--7-7-7-6-7-8-8-7-6-6-7-8-----------------------------------------------5-6--7-4----0-5-----|

[Verse]
They came running. But they were just a bit too late.
e|----------------------------------------------|
B|----------------------------------------------|
G|----------------------------------------------|
D|----------------------------------------------|
A|----------------------------------------------|
E|--5-6-5-6-7-5-6-5-6-7-5-6-5-6-7-5-6-5-6-7-----|

[Verse]
As i had already faced my horrid fate.
e|----------------------------------------------|
B|----------------------------------------------|
G|----------------------------------------------|
D|----------------------------------------------|
A|----------------------------------------------|
E|--5-6-5-6-7-5-6-5-6-7-5-6-5-6-7-5-6-5-6-7-----|

[Verse]
The rollercoaster came down and ran me down.
e|----------------------------------------------|
B|----------------------------------------------|
G|----------------------------------------------|
D|----------------------------------------------|
A|----------------------------------------------|
E|--5-6-5-6-7-5-6-5-6-7-5-6-5-6-7-5-6-5-6-7-----|

[Verse]
In horrorland.
e|----------------------------------------------|
B|----------------------------------------------|
G|----------------------------------------------|
D|----------------------------------------------|
A|----------------------------------------------|
E|--5-6-5-6-7-5-6-5-6-7-5-6-5-6-7-5-6-5-6-7-----|

[Outro]

e|-----------------------------------------------------------------|
B|-----------------------------------------------------------------|
G|----------------------------------------------12b12b12b12b12b12b-|
D|-----------------------------------------------------------------|
A|-----------------------------------------------------------------|
E|--5-6-5-6-7-5-6-5-6-7-5-6-5-6-7-5-6-5-6-7------------------------|


************************************

| b  Bend

************************************
Suggest correction
Give kudos to tab author, rate the tab!
1 2 3 4 5
comments
print report bad tab
guest
You may want to rate the tab now too:
select rating
Wanna post a correction for this tab? Suggest correction