Oops, an error
Loading. Please wait.

Sjo455 - Jai Wants To Die tab

4 views 1 this week
no commentswrite comment
1 2 3 4 5
3 more votes to show rating
add to favorites
×
Save as Personal and add changes to this tab that will be seen only by you. Learn more ›
×
You can save this tab as Personal to edit and correct it or add notes. All changes will be seen only by you. Learn more »
launch autoscroll
font size
0
reset
how to read this tab
guitar tuner
edit
Autoscroll
slow
fast
+/-
esc
set tempo
stop
Author
[Verse]
Jai is as ugly as granpas chicken pie.
e|-3-3-3-3-3-3-3-3-3-3-3-3-3-3-3-3-3-3-3--|
B|-4-4-4-4-4-4-4-4-4-4-4-4-4-4-4-4-4-4-4--|
G|-4-4-4-4-4-4-4-4-4-4-4-4-4-4-4-4-4-4-4--|
D|----------------------------------------|
A|----------------------------------------|
E|----------------------------------------|
It doesnt make sense. Its just too intense.
e|-3-3-3-3-3-3-3-3-3-3-3-3-3-3-3-3-3-3-3--|
B|-4-4-4-4-4-4-4-4-4-4-4-4-4-4-4-4-4-4-4--|
G|-4-4-4-4-4-4-4-4-4-4-4-4-4-4-4-4-4-4-4--|
D|----------------------------------------|
A|----------------------------------------|
E|----------------------------------------|

[Verse]
As Jai wanders through life, he always crys.
e|-3-3-3-3-3-3-3-3-3-3-3-3-3-3-3-3-3-3-3--|
B|-4-4-4-4-4-4-4-4-4-4-4-4-4-4-4-4-4-4-4--|
G|-4-4-4-4-4-4-4-4-4-4-4-4-4-4-4-4-4-4-4--|
D|----------------------------------------|
A|----------------------------------------|
E|----------------------------------------|
La la la Everyone hates him. Even his ma and pa.
e|-3-3-3-3-3-3-3-3-3-3-3-3-3-3-3-3-3-3-3--|
B|-4-4-4-4-4-4-4-4-4-4-4-4-4-4-4-4-4-4-4--|
G|-4-4-4-4-4-4-4-4-4-4-4-4-4-4-4-4-4-4-4--|
D|----------------------------------------|
A|----------------------------------------|
E|----------------------------------------|

[Verse]
Jai wants to die. He hates his life.
e|-3-3-3-3-3-3-3-3-3-3-3-3-3-3-3-3-3-3-3--|
B|-4-4-4-4-4-4-4-4-4-4-4-4-4-4-4-4-4-4-4--|
G|-4-4-4-4-4-4-4-4-4-4-4-4-4-4-4-4-4-4-4--|
D|----------------------------------------|
A|----------------------------------------|
E|----------------------------------------|
For him, its all gonna end tonite.
e|-3-3-3-3-3-3-3-3-3-3-3-3-3-3-3-3-3-3-3--|
B|-4-4-4-4-4-4-4-4-4-4-4-4-4-4-4-4-4-4-4--|
G|-4-4-4-4-4-4-4-4-4-4-4-4-4-4-4-4-4-4-4--|
D|----------------------------------------|
A|----------------------------------------|
E|----------------------------------------|

[Verse]
I asked him what was it that i did?
e|-3-3-3-3-3-3-3-3-3-3-3-3-3-3-3-3-3-3-3--|
B|-4-4-4-4-4-4-4-4-4-4-4-4-4-4-4-4-4-4-4--|
G|-4-4-4-4-4-4-4-4-4-4-4-4-4-4-4-4-4-4-4--|
D|----------------------------------------|
A|----------------------------------------|
E|----------------------------------------|
But his words didnt come out right. Itll all end tonite
e|-3-3-3-3-3-3-3-3-3-3-3-3-3-3-3-3-3-3-3--|
B|-4-4-4-4-4-4-4-4-4-4-4-4-4-4-4-4-4-4-4--|
G|-4-4-4-4-4-4-4-4-4-4-4-4-4-4-4-4-4-4-4--|
D|----------------------------------------|
A|----------------------------------------|
E|----------------------------------------|

[Verse]
Baby he is always lonely. Noone wants to be his friend.
e|-3-3-3-3-3-3-3-3-3-3-3-3-3-3-3-3-3-3-3--|
B|-4-4-4-4-4-4-4-4-4-4-4-4-4-4-4-4-4-4-4--|
G|-4-4-4-4-4-4-4-4-4-4-4-4-4-4-4-4-4-4-4--|
D|----------------------------------------|
A|----------------------------------------|
E|----------------------------------------|

Baby, noone thinks he will last to the end.
e|-3-3-3-3-3-3-3-3-3-3-3-3-3-3-3-3-3-3-3--|
B|-4-4-4-4-4-4-4-4-4-4-4-4-4-4-4-4-4-4-4--|
G|-4-4-4-4-4-4-4-4-4-4-4-4-4-4-4-4-4-4-4--|
D|----------------------------------------|
A|----------------------------------------|
E|----------------------------------------|

[Verse]
Jai wants to die. We all hate him and his life
e|-3-3-3-3-3-3-3-3-3-3-3-3-3-3-3-3-3-3-3--|
B|-4-4-4-4-4-4-4-4-4-4-4-4-4-4-4-4-4-4-4--|
G|-4-4-4-4-4-4-4-4-4-4-4-4-4-4-4-4-4-4-4--|
D|----------------------------------------|
A|----------------------------------------|
E|----------------------------------------|
Baby, i need you here with me so we can throw him into sea.
e|-3-3-3-3-3-3-3-3-3-3-3-3-3-3-3-3-3-3-3--|
B|-4-4-4-4-4-4-4-4-4-4-4-4-4-4-4-4-4-4-4--|
G|-4-4-4-4-4-4-4-4-4-4-4-4-4-4-4-4-4-4-4--|
D|----------------------------------------|
A|----------------------------------------|
E|----------------------------------------|

[Verse]
Goodbye, mr Jai. You are about to die tonite!
e|-3-3-3-3-3-3-3-3-3-3-3-3-3-3-3-3-3-3-3--|
B|-4-4-4-4-4-4-4-4-4-4-4-4-4-4-4-4-4-4-4--|
G|-4-4-4-4-4-4-4-4-4-4-4-4-4-4-4-4-4-4-4--|
D|----------------------------------------|
A|----------------------------------------|
E|----------------------------------------|

Who do ya call a crybaby? Jai maybe!
e|-3-3-3-3-3-3-3-3-3-3-3-3-3-3-3-3-3-3-3--|
B|-4-4-4-4-4-4-4-4-4-4-4-4-4-4-4-4-4-4-4--|
G|-4-4-4-4-4-4-4-4-4-4-4-4-4-4-4-4-4-4-4--|
D|----------------------------------------|
A|----------------------------------------|
E|----------------------------------------|

[Verse]
Jai wants to die. We all hate his life.
e|-3-3-3-3-3-3-3-3-3-3-3-3-3-3-3-3-3-3-3--|
B|-4-4-4-4-4-4-4-4-4-4-4-4-4-4-4-4-4-4-4--|
G|-4-4-4-4-4-4-4-4-4-4-4-4-4-4-4-4-4-4-4--|
D|----------------------------------------|
A|----------------------------------------|
E|----------------------------------------|

Jai hates himself. Jai has bad mental health.
e|-3-3-3-3-3-3-3-3-3-3-3-3-3-3-3-3-3-3-3--|
B|-4-4-4-4-4-4-4-4-4-4-4-4-4-4-4-4-4-4-4--|
G|-4-4-4-4-4-4-4-4-4-4-4-4-4-4-4-4-4-4-4--|
D|----------------------------------------|
A|----------------------------------------|
E|----------------------------------------|

[Verse]
All raise your hand high if you hate Jai.
e|-3-3-3-3-3-3-3-3-3-3-3-3-3-3-3-3-3-3-3--|
B|-4-4-4-4-4-4-4-4-4-4-4-4-4-4-4-4-4-4-4--|
G|-4-4-4-4-4-4-4-4-4-4-4-4-4-4-4-4-4-4-4--|
D|----------------------------------------|
A|----------------------------------------|
E|----------------------------------------|

Jai wants to die cause we and he all hate his life!
e|-3-3-3-3-3-3-3-3-3-3-3-3-3-3-3-3-3-3-3--|
B|-4-4-4-4-4-4-4-4-4-4-4-4-4-4-4-4-4-4-4--|
G|-4-4-4-4-4-4-4-4-4-4-4-4-4-4-4-4-4-4-4--|
D|----------------------------------------|
A|----------------------------------------|
E|----------------------------------------|

            
            
Suggest correction
Creating personal tab
Creating personal tab
You can edit any tab online and save it as your Personal.

You can edit, replace or remove any tab part or add personal notes – all changes will be seen only by you.

Personal tabs can be accessed anytime from any device, even offline.
Learn more »
Give kudos to tab author, rate the tab!
1 2 3 4 5
comments
print report bad tab
guest
You may want to rate the tab now too:
select rating
Wanna post a correction for this tab? Suggest correction