Oops, an error
Loading. Please wait.

Sky Of Olympus - I Hate Cold Bar tab

85 views 1 this week
no commentswrite comment
1 2 3 4 5
3 more votes to show rating
add to favorites
×
Save as Personal and add changes to this tab that will be seen only by you. Learn more ›
×
You can save this tab as Personal to edit and correct it or add notes. All changes will be seen only by you. Learn more »
launch autoscroll
font size
0
reset
how to read this tab
guitar tuner
edit
Autoscroll
slow
fast
+/-
esc
set tempo
stop
-------------------------------------------------------------------------------
                             SONG NAME - Band Name
-------------------------------------------------------------------------------
Tabbed by: Wayne S.
Email: vampbp@ymail.com


Tuning: C#
    
     xx xx xx  xx xx xx xx  xx xx xx xx  xx xx xx xx  xx xx xx xx xx
C |--00-00-00--00-00-00-00--00-00-00-00--00-00-00-00--00-00-00-00-00-|
G |-5--7--8--10--5--7--8--10--5--7--8--10--5--7--8--10--5--7-----4---|
C |-----------------------------------------------------------7------|
F |------------------------------------------------------------------|  X4
A |------------------------------------------------------------------|
D |------------------------------------------------------------------|

    xx      xxx xx      xxx xx      xxx xx xx
C|--00------000-00------000-00------000-00-00-------------------------|
G|-5--333555---5--333555---5--333555---5--7-----888-------------------|
C|-------------------------------------------787----------------------|
F|--------------------------------------------------------------------|  X2
A|--------------------------------------------------------------------|
D|--------------------------------------------------------------------|

    xx xx xx xx  xx xx        xx xx xx xx  xx xx
C|--00-00-00-00--00-00--8888--00-00-00-00--00-00--8888----------------|
G|-8--7--------10--8--7-8888-8--7--------10--8--7-8888----------------|
C|-------8--7-----------8888-------8--7-----------8888----------------|  
F|--------------------------------------------------------------------|  X2
A|--------------------------------------------------------------------|
D|--------------------------------------------------------------------|


    xx xx xx xx xx xx xx xx  x x   x x   x x   x x
C|--77-77-77-77-88-88-88-88-1010--1010--1010--1010-101010101010101010101010-|
G|-7--7--7--7--8--8--8--8--10---10----10----10-----101010101010101010101010-|
C|-------------------------------------------------101010101010101010101010-|
F|--------------------------------------------------------------------------|
A|--------------------------------------------------------------------------|
D|--------------------------------------------------------------------------|


C|-0-00000-0-00000-3-3333/5-5555-0-00000-0-00000-3-3333/7-7777-|
G|-0-00000-0-00000-3-3333/5-5555-0-00000-0-00000-3-3333/7-7777-|
C|-----------------3-3333/5-5555-----------------3-3333/7-7777-|
F|-------------------------------------------------------------|
A|-------------------------------------------------------------|
D|-------------------------------------------------------------|


C|-0-00000-0-00000-3-3333/5-5555/10-10101010-10-10101010-10-10101010-10-101010-|
G|-0-00000-0-00000-3-3333/5-5555/10-10101010-10-10101010-10-10101010-10-101010-|
C|-----------------3-3333/5-5555/10-10101010-10-10101010-10-10101010-10-101010-|
F|-----------------------------------------------------------------------------|
A|-----------------------------------------------------------------------------|
D|-----------------------------------------------------------------------------|

          
C|-0-00000-0-00000-3-3333/5-5555-0-00000-0-00000-3-3333/7-7777-|
G|-0-00000-0-00000-3-3333/5-5555-0-00000-0-00000-3-3333/7-7777-|
C|-----------------3-3333/5-5555-----------------3-3333/7-7777-|
F|-------------------------------------------------------------|
A|-------------------------------------------------------------|
D|-------------------------------------------------------------|


C|-0-00000-0-00000-3-3333/5-5555/10-10101010-10-10101010-10-10101010-10-101010-6-5-3-0|
G|-0-00000-0-00000-3-3333/5-5555/10-10101010-10-10101010-10-10101010-10-101010-6-5-3-0| Let Ring!
C|-----------------3-3333/5-5555/10-10101010-10-10101010-10-10101010-10-101010-6-5-3-0|
F|------------------------------------------------------------------------------------|
A|------------------------------------------------------------------------------------|
D|------------------------------------------------------------------------------------|


        x x xxx x  x x x xxx x  x x xxx x   x x  x x  x
C|-12/--0-0-000-0--0-0-0-000-0--0-0-000-0---7-0--5-0--0-|
G|-12/--0-0-000-0--0-0-0-000-0--0-0-000-0--5----3----1--|
C|-12/--------------------------------------------------|
F|------------------------------------------------------|
A|------------------------------------------------------|
D|------------------------------------------------------|

     x x xxx x  x x x xxx x  x x xxx x   x x  x x  x
C|---0-0-000-0--0-0-0-000-0--0-0-000-0---7-0--5-0--0-|
G|---0-0-000-0--0-0-0-000-0--0-0-000-0--5----3----1--|
C|---------------------------------------------------|
F|---------------------------------------------------|
A|---------------------------------------------------|
D|---------------------------------------------------|

     x x xxx x  x x x xxx x  x x xxx x   x x  x x  x
C|---0-0-000-0--0-0-0-000-0--0-0-000-0---7-0--5-0--0-|
G|---0-0-000-0--0-0-0-000-0--0-0-000-0--5----3----1--|
C|---------------------------------------------------|
F|---------------------------------------------------|
A|---------------------------------------------------|
D|---------------------------------------------------|

     x x xxx x  x x x xxx x  x x xxx x   x x  x x  x
C|---0-0-000-0--0-0-0-000-0--0-0-000-0---7-0--5-0--0--0-|
G|---0-0-000-0--0-0-0-000-0--0-0-000-0--5----3----1---0-| Let Ring!
C|----------------------------------------------------0-|
F|------------------------------------------------------|
A|------------------------------------------------------|
D|------------------------------------------------------|

    xx xx xx  xx xx xx xx
C|--00-00-00--00-00-00-00--------|
G|-5------------------8--7-------|
C|----7--5--10-------------------|
F|--------------9--7-------------|  x4
A|-------------------------------|
D|-------------------------------|


C|--------------------------------------------------------------------|
G|-555888---------------------7h8-5-555888----------------------7h8-5-|
C|-------555888777101010-7h8-5------------555888777101010-7h8-5-------|
F|--------------------------------------------------------------------|
A|--------------------------------------------------------------------|
D|--------------------------------------------------------------------|
                            
                                                                     xx x x
C|--------------------------------------------------------------------00-0-0|
G|-555888---------------------7h8-5-555888----------------------7h8-5-00-0-0|
C|-------555888777101010-7h8-5------------555888777101010-7h8-5-------------|
F|--------------------------------------------------------------------------|
A|--------------------------------------------------------------------------|
D|--------------------------------------------------------------------------|


C|--------------------------------------------------------|
G|-5h8(8 times)-------------------------------------------|
C|-------------5h8(8 times)-7h10(8 times)-----------------|  Tapping Section
F|---------------------------------------7h10(8 times)----|  x4
A|--------------------------------------------------------|
D|--------------------------------------------------------|

         x x xxx x  x x x x  x  x x x  x  x x x   x   x
C|-7\15/-0-0-000-0--0-0-0-0--0--0-0-0--0--0-0-2---0---0--------|
G|-7\15/-0-0-000-0--0-0-0-0--0--0-0-0--0--0-0---5---4---0-1-4--|
C|-7\15/-------------------------------------------------------|
F|-------------------------------------------------------------|
A|-------------------------------------------------------------|
D|-------------------------------------------------------------|


   x x xxx x  x x x x  x  x x x  x  x x x   x   x
C|-0-0-000-0--0-0-0-0--0--0-0-0--0--0-0-2---0---0--------|
G|-0-0-000-0--0-0-0-0--0--0-0-0--0--0-0---5---4---0-1-4--|
C|-------------------------------------------------------|
F|-------------------------------------------------------|  x2
A|-------------------------------------------------------|
D|-------------------------------------------------------|

   x x xxx x  x x x x  x  x x x  x  x x x   x   x
C|-0-0-000-0--0-0-0-0--0--0-0-0--0--0-0-2---0---0--------0--|
G|-0-0-000-0--0-0-0-0--0--0-0-0--0--0-0---5---4---0-1-4--0--| Let Ring then Pick slide
C|-------------------------------------------------------0--|
F|----------------------------------------------------------|  
A|----------------------------------------------------------|
D|----------------------------------------------------------|

    xx xx  xx xx xx xx  xx xx xx xx  xx xx xx xx  xx xx xx xx xx xx
C|--00-00-00--00-00-00-00--00-00-00-00--00-00-00-00--00-00-00-00-00-|
G|-5--7--8--10--5--7--8--10--5--7--8--10--5--7--8--10--5--7-----4---|
C|-----------------------------------------------------------7------|
F|------------------------------------------------------------------|  X2
A|------------------------------------------------------------------|
D|------------------------------------------------------------------|

    xx      xxx xx      xxx xx      xxx xx xx
C|--00------000-00------000-00------000-00-00-------------------------|
G|-5--333555---5--333555---5--333555---5--7-----888-------------------|
C|-------------------------------------------787----------------------|
F|--------------------------------------------------------------------|  
A|--------------------------------------------------------------------|
D|--------------------------------------------------------------------|

    xx xx xx xx  xx xx        xx xx xx xx  xx xx
C|--00-00-00-00--00-00--8888--00-00-00-00--00-00--8888----------------|
G|-8--7--------10--8--7-8888-8--7--------10--8--7-8888----------------|
C|-------8--7-----------8888-------8--7-----------8888----------------|  
F|--------------------------------------------------------------------| 
A|--------------------------------------------------------------------|
D|--------------------------------------------------------------------|

    xx xx xx xx  xx xx        xx xx xx xx  xx xx
C|--00-00-00-00--00-00--8888--00-00-00-00--00-00------------------|
G|-8--7--------10--8--7-8888-8--7--------10--8--7-----------------|
C|-------8--7-----------8888-------8--7---------------------------|  
F|----------------------------------------------------------------| 
A|----------------------------------------------------------------|
D|----------------------------------------------------------------|
 
                  xx xx xx                       xx xx  xx                 
C|-8-8888/5-5555--00-00-00---8-8888\10-10101010--00-00--00----|
G|-8-8888/5-5555-7--8--5-----8-8888\10-10101010-7--8--10------|
C|-8-8888/5-5555----------7~-8-8888\10-10101010-----------10~-|
F|------------------------------------------------------------|  
A|------------------------------------------------------------|
D|------------------------------------------------------------|

                  xx xx xx                       xx xx  xx
C|-8-8888/5-5555--00-00-00---8-8888\10-10101010--00-00--00----|
G|-8-8888/5-5555-7--8--5-----8-8888\10-10101010-7--8--10------|
C|-8-8888/5-5555----------7~-8-8888\10-10101010-----------10~-|
F|------------------------------------------------------------|  
A|------------------------------------------------------------|
D|------------------------------------------------------------|


C|-8-8888-8-8888\10-10101010-10-10101010-10-10101010-10-10101010-|
G|-8-8888-8-8888\10-10101010-10-10101010-10-10101010-10-10101010-|
C|-8-8888-8-8888\10-10101010-10-10101010-10-10101010-10-10101010-|
F|---------------------------------------------------------------|
A|---------------------------------------------------------------|
D|---------------------------------------------------------------|


C|-0-00000-0-00000-3-3333/5-5555-0-00000-0-00000-3-3333/7-7777-|
G|-0-00000-0-00000-3-3333/5-5555-0-00000-0-00000-3-3333/7-7777-|
C|-----------------3-3333/5-5555-----------------3-3333/7-7777-|
F|-------------------------------------------------------------|
A|-------------------------------------------------------------|
D|-------------------------------------------------------------|


C|-0-00000-0-00000-3-3333/5-5555/10-10101010-10-10101010-10-10101010-10-101010-6-5-3-0|
G|-0-00000-0-00000-3-3333/5-5555/10-10101010-10-10101010-10-10101010-10-101010-6-5-3-0| Let Ring!
C|-----------------3-3333/5-5555/10-10101010-10-10101010-10-10101010-10-101010-6-5-3-0|
F|------------------------------------------------------------------------------------|
A|------------------------------------------------------------------------------------|
D|------------------------------------------------------------------------------------|


C|-----------------------------------------------------------------|
G|--------8--7------------8--7------------8--7------------8--7-----|
C|-7--10--------8--7--10--------8--7--10--------8--7--10--------8--|
F|-----------------------------------------------------------------|
A|-----------------------------------------------------------------|
D|-----------------------------------------------------------------|

 
   x x x x x x x x x x x x x x x x  x  x  x  x  x  x  x  x x x x x x x x x
C|-7-7-7-7-7-7-7-7-8-8-8-8-8-8-8-8-10-10-10-10-10-10-10-10-5-5-5-5-5-5-0-0--|
G|-7-7-7-7-7-7-7-7-8-8-8-8-8-8-8-8-10-10-10-10-10-10-10-10-5-5-5-5-5-5-0-0--|
C|--------------------------------------------------------------------------|
F|--------------------------------------------------------------------------| x2
A|--------------------------------------------------------------------------|
D|--------------------------------------------------------------------------|


C|----------------------------------------------|
G|----------------------------------------------|
C|-88888888888888-1010101010101010101010101010--|
F|----------------------------------------------|
A|----------------------------------------------|
D|----------------------------------------------|


C|----------------------------------------------------------------|
G|-1212121212121212121212121212-----------------------------------|
C|------------------------------1515151515151515-1414141414141414-|
F|----------------------------------------------------------------|
A|----------------------------------------------------------------|
D|----------------------------------------------------------------|


C|--------------------------------------------------0--|
G|-5---------------5---------------5----------------0--|
C|---8---------7-8---8---------7-8---8---------7-8--0--|
F|-----7-----6---------7-----6---------7-----6---------|
A|-------6-5-------------6-5-------------6-5-----------|
D|-----------------------------------------------------|




************************************

| /   slide up
| \   slide down
| h   hammer-on
| p   pull-off
| ~   vibrato
| +   harmonic
| x   Mute note
| b   Bend
| pb  Pre-bend
| br  Bend release
| pbr Pre-bend release
| brb Bend release bend

************************************

            
            
Suggest correction
Creating personal tab
Creating personal tab
You can edit any tab online and save it as your Personal.

You can edit, replace or remove any tab part or add personal notes – all changes will be seen only by you.

Personal tabs can be accessed anytime from any device, even offline.
Learn more »
Give kudos to tab author, rate the tab!
1 2 3 4 5
comments
print report bad tab
guest
You may want to rate the tab now too:
select rating
Wanna post a correction for this tab? Suggest correction