Oops, an error
Loading. Please wait.

Smallpools - Dreaming Tab

8,993 views 18 this week
no commentswrite comment
1 2 3 4 5
x 4
add to favorites
launch autoscroll
font size
0
reset
how to read this tab
guitar tuner
Autoscroll
slow
fast
+/-
esc
set tempo
stop
Help us to improve Ultimate-Guitar.com Take our survey!
×
Author
Difficulty
intermediate
INTRO

Electric 1

E|------------------------------------------------------|
B|------------------------------------------------------|
G|-12-10----------10-12---------------------------------|
D|-------13-10-13-------x3--10-13-10-13--13-13-10-13-10-|
A|------------------------------------------------------|
E|------------------------------------------------------|

Electric 2
(listen to song for pattern)
E|-----------|
B|-----------|
G|-5-12-10-8-|
D|-5-12-10-8-|
A|-3-10-8--6-|
E|-----------|


VERSE

Electric 2
(listen to song for pattern)
E|-----------|
B|-----------|
G|-5-12-10-8-|
D|-5-12-10-8-|
A|-3-10-8--6-|
E|-----------|

PRE-CHORUS

Electric 1

E|-------------11-|
B|-11-11-11-13----|
G|----------------|
D|----------------|
A|----------------|
E|----------------|

Electric 2

E|-------|
B|-------|
G|---8---|
D|-6-8-8-|
A|-6-6-8-|
E|-4---6-|

CHORUS

Electric 1

E|------------------------------------------------------|
B|------------------------------------------------------|
G|-12-10----------10-12---------------------------------|
D|-------13-10-13-------x3--10-13-10-13--13-13-10-13-10-|
A|------------------------------------------------------|
E|------------------------------------------------------|

Electric 2

E|--------------------|
B|--------------------|
G|---8----------------|
D|-6-8-8-10--6-3-10-8-|
A|-6-6-8-10--6-3-10-8-|
E|-4---6-8---4-1-8--6-|

INTRO

VERSE

Electric 1

E|-11-11-11-8--11-11-8-x4-/13-|
B|----------------------------|
G|----------------------------|
D|----------------------------|
A|----------------------------|
E|----------------------------|

Electric 2
(listen to song for pattern)
E|-----------|
B|-----------|
G|-5-12-10-8-|
D|-5-12-10-8-|
A|-3-10-8--6-|
E|-----------|

PRE-CHORUS

CHORUS

INTRO

BRIDGE (part 1)

Electric 1

E|-------------------------------|
B|-------------------------------|
G|-------------------------------|
D|-13-13-13-13--13-13--13-13--13-|
A|-------------------------------|
E|-------------------------------|

Electric 2

E|-------------|
B|-------------|
G|-8-7/12\10\8-|
D|-x-x-x--x--x-|
A|-6-5/10\8-\6-|
E|-------------|

BRIDGE (part 2)

Electric 1

E|-11-11-11-11--11-11--11-11--11-|
B|-------------------------------|
G|-------------------------------|
D|-------------------------------|
A|-------------------------------|
E|-------------------------------|

Electric 2

E|-------------|
B|-------------|
G|-8-7/12\10\8-|
D|-x-x-x--x--x-|
A|-6-5/10\8-\6-|
E|-------------|

BRIDGE (part 3)

Electric 3

E|-----------------|
B|-----------------|
G|-------8-7---5-8-|
D|-6-5-8-8-7-6-5-8-|
A|-6-5-8-6-5-6-3-6-|
E|-4-3-6-----4-----|

CHORUS

INTRO
Suggest correction
comments
print report bad tab
guest
You may want to rate the tab now too:
select rating
Wanna post a correction for this tab? Suggest correction