Oops, an error
Loading. Please wait.

Softtop Roadtrip - It Will Never Be Okay Tab

59 views 1 this week
no commentswrite comment
1 2 3 4 5
please rate
add to favorites
launch autoscroll
font size
0
reset
how to read this tab
guitar tuner
Autoscroll
slow
fast
+/-
esc
set tempo
stop
Help us to improve Ultimate-Guitar.com Take our survey!
×
Author
Artist: Softtop Roadtrip
Song: It Will Never Be Okay
Tuning: Guitar 1: Standard
        Guitar 2: Standard

This is our band's debut song. It is a relatively fast song except for the emo parts(or
solos). There is two guitars in it.

Intro: Guitar 1:

E------------------------------------------------------------------------|
B------------------------------------------------------------------------|
G------------------------------------------------------------------------|
D------9-9-8-8-9-9------9-9-8-8-9-9------9-9-8-8-9-9--11-11-9-9-8-8-9-9--|x2
A--9-9--------------7-7--------------6-6--------------0--0---------------|
E------------------------------------------------------------------------|

Intro 2: Guitars 1 & 2:

E-------------------------------------------------|
B-------------------------------------------------|
G--99999999---------------------------------------|
D--99999999--99999999--1111111111111111--77777777-|x3
A--77777777--99999999--1111111111111111--77777777-|
E------------77777777--9-9-9-9-9-9-9-9---55555555-|

Verse: Guitar 1:

E------5-5-----5-5-|
B--4-4-----7-7-----|
G------------------|
D------------------|x12
A------------------|
E------------------|

Verse: Guitar 2:

E---------------------------------------------------|
B---------------------------------------------------|
G---------------------------------------------------|
D---88888888----------------------------------------|x3
A---66666666--88888888--1010101010101010--66666666--|
E-------------66666666--8-8-8-8-8-8-8-8---44444444--|
P.M.********  ********  * * * * * * * *   ********

Chorus: Guitars 1 and 2:

E------------------------------------------|
B------------------------------------------|
G--55555555--------------------------------|
D--55555555--55555555--77777777--33333333--|x3
A--33333333--55555555--77777777--33333333--|
E------------33333333--55555555--11111111--|

Solo 1: Guitar 1:

E-----------------------------------------------------|
B-------------------------------------------------7---|
G------7-----7-----7-----7-----7-----7-----7--------7-|
D----7-----7-----7-----7-----7-----7-----7------7-----|x3
A--5-----5-----4-----4--------------------------------|
E--------------------------5-----5-----7------7-------|

Repeat Intro 2
Repeat Verse(Both Guitars)
Repeat Chorus

Solo 2: Guitar 1:

E---------------|  |--------------|  |----7-----5----|  |----4-----5----|
B----7-----5----|  |----4-----5---|  |--5---5-5---5--|  |--5---5-5---5--|
G--4---4-4---4--|  |--4---4-4---4-|  |---------------|  |---------------|
D---------------|x3|--------------|x3|---------------|x3|---------------|x3
A---------------|  |--------------|  |---------------|  |---------------|
E---------------|  |--------------|  |---------------|  |---------------|

E----5-----4-2--|  |----5---5-4-2-0-|
B--5---5-5------|  |--5---5---------|
G---------------|  |----------------|
D---------------|x2|----------------|
A---------------|  |----------------|
E---------------|  |----------------|

Repeat Chorus
Suggest correction
What's this?
You can suggest a correction to this tab. Community and Mods will review your correction and vote to approve or reject it.
comments
We did not receive enough feedback on this tab! Please rate:
print report bad tab
1 2 3 4 5
guest
You may want to rate the tab now too:
select rating
Please do not post tabs as comments. Select "correction" instead!