Oops, an error
Loading. Please wait.

Soitwouldbe - Goddess Like bass

40 views 1 this week
no commentswrite comment
1 2 3 4 5
3 more votes to show rating
add to favorites
×
Save as Personal and add changes to this tab that will be seen only by you. Learn more ›
×
You can save this tab as Personal to edit and correct it or add notes. All changes will be seen only by you. Learn more »
launch autoscroll
font size
0
reset
guitar tuner
edit
Autoscroll
slow
fast
+/-
esc
set tempo
stop
Author
[Intro]

G|-----------------------------------------------------3-------------0--------|
D|----3-----------------------3-------------------------1-------------1-------|
A|-----1-----------------------1---------------------3---3--3--3-3-3---3--3-3-|
E|3-----3--3-3-3--1--3---3-3----3--3-3-3--1--3---3-3--------------------------|
B|----------------------------------------------------------------------------|

G|-----5----------0----------------------------------------------------------| X2 
D|------3----------3---------------------------------------------------------|
A|5--5---5--5-5-5---5--5-----------------------------------------------------|
E|---------------------------------------------------------------------------|
B|---------------------------------------------------------------------------|

G|----------------------------------------------------3-------------0----------|
D|------3----------1h3-3h0-------3----------1h3-3h0----1-------------1---------|
A|-------1------1h3---------------1------1h3--------3---3--3--3-3-3---3--3-3---|
E|3--3----3--1h3-----------3--3----3--1h3--------------------------------------|
B|-----------------------------------------------------------------------------| 

G|-----5----------3h5-7p0-----------------------------------------------------3-------------0-------|
D|------3------3h5--------------3----------1h3-3h0-------3----------1h3-3h0----1-------------1------|
A|5--5---5--3h5------------------1------1h3---------------1------1h3--------3---3--3--3-3-3---3--3-3|
E|------------------------3--3----3--1h3-----------3--3----3--1h3-----------------------------------|
B|--------------------------------------------------------------------------------------------------|

G|-----5-------------------------5-------------------------------------------|
D|------3------3h5--5--5--5-------3------3h5--5--5--5------------------------|
A|5--5---5--3h5-------------5--5---5--3h5------------------------------------|
E|---------------------------------------------------------------------------|
B|---------------------------------------------------------------------------|


[Verse]

G|-----------------------------------------------------3-------------0--------|
D|----3-----------------------3-------------------------1-------------1-------|
A|-----1-----------------------1---------------------3---3--3--3-3-3---3--3-3-|
E|3-----3--3-3-3--1--3---3-3----3--3-3-3--1--3---3-3--------------------------|
B|----------------------------------------------------------------------------|

G|-----5----------0----------------------------------------------------------| X3  
D|------3----------3---------------------------------------------------------|
A|5--5---5--5-5-5---5--5-----------------------------------------------------|
E|---------------------------------------------------------------------------|
B|---------------------------------------------------------------------------|

G|-----------------------------------------------------3-------------0--------|
D|----3-----------------------3-------------------------1-------------1-------|
A|-----1-----------------------1---------------------3---3--3--3-3-3---3--3-3-|
E|3-----3--3-3-3--1--3---3-3----3--3-3-3--1--3---3-3--------------------------|
B|----------------------------------------------------------------------------|

G|-----5---------------------------------------------------------------------|
D|------3------3h5--5--5--5--------------------------------------------------|
A|5--5---5--3h5--------------------------------------------------------------|
E|---------------------------------------------------------------------------|
B|---------------------------------------------------------------------------|


[Chorus] 
                                  (ALL SLAPS)
G|S--3-----------3---------5----------3----------3----------3---------5----------3------|
D|S-------------------------------------------------------------------------------------|
A|S-------------3--3--3-3h5--5--5-5--3---3--3--------------3--3--3-3h5--5--5-5--3---3--3|
E|S-3---3--3-3--------------------------------3-3--3--3-3-------------------------------|
B|S-------------------------------------------------------------------------------------|

G|S----3-----------3---------5----------3----------3----------3---------5----------3--3--3--|X2
D|S-----------------------------------------------------------------------------------------|
A|S---------------3--3--3-3h5--5--5-5--3---3--3--------------3--3--3-3h5--5--5-5--3---------|
E|S-3-3---3--3-3--------------------------------3-3--3--3-3---------------------------------|
B|S-----------------------------------------------------------------------------------------|


[Verse 2]

G|-----------------------------------------------------3-------------0--------|
D|----3-----------------------3-------------------------1-------------1-------|
A|-----1-----------------------1---------------------3---3--3--3-3-3---3--3-3-|
E|3-----3--3-3-3--1--3---3-3----3--3-3-3--1--3---3-3--------------------------|
B|----------------------------------------------------------------------------|

G|-----5----------0----------------------------------------------------------| X4  
D|------3----------3---------------------------------------------------------|
A|5--5---5--5-5-5---5--5-----------------------------------------------------|
E|---------------------------------------------------------------------------|
B|---------------------------------------------------------------------------|

G|-----------------------------------------------------3-------------0--------|
D|----3-----------------------3-------------------------1-------------1-------|
A|-----1-----------------------1---------------------3---3--3--3-3-3---3--3-3-|
E|3-----3--3-3-3--1--3---3-3----3--3-3-3--1--3---3-3--------------------------|
B|----------------------------------------------------------------------------|

G|-----5-----------------------3-------------0--------------5--------------------|
D|------3------3h5--5--5--5-----1-------------1--------------3------3h5--5--5--5-|
A|5--5---5--3h5--------------3---3--3--3-3-3---3--3-3--5--5---5--3h5-------------|
E|-------------------------------------------------------------------------------|
B|-------------------------------------------------------------------------------|


[Chorus 2] 
                               (ALL SLAPS)
G|S--3-----------3---------5----------3----------3----------3---------5----------3------|
D|S-------------------------------------------------------------------------------------|
A|S-------------3--3--3-3h5--5--5-5--3---3--3--------------3--3--3-3h5--5--5-5--3---3--3|
E|S-3---3--3-3--------------------------------3-3--3--3-3-------------------------------|
B|S-------------------------------------------------------------------------------------|

G|S----3-----------3---------5----------3----------3----------3---------5----------3--3--3--|X2
D|S-----------------------------------------------------------------------------------------|
A|S---------------3--3--3-3h5--5--5-5--3---3--3--------------3--3--3-3h5--5--5-5--3---------|
E|S-3-3---3--3-3--------------------------------3-3--3--3-3---------------------------------|
B|S-----------------------------------------------------------------------------------------|


[Bridge]
           (Holds)
G|---------------------------------------------------------------------------------------|
D|---------------------------------------------------------------------------------------|
A|---------------------------------------------------------------------------------------|
E|3------------8-----------3-------5------8-----5-------3---3-3----5---5---8--8-8---5---2|
B|---------------------------------------------------------------------------------------|


G|----------------------------------------------------------------------------|
D|----------------------------------------------------------------------------|
A|------------------------6--5---6---5----------------------------------------|
E|3---3-3----5---5---8-8-------5----------------------------------------------|
B|---------------------------------7------------------------------------------|

                           (Speeds up/All instruments play)
G|---------------------------------------------------------------------------------------| 
D|---------------------------------------------------------------------------------------|
A|-------------------------------6--5---6---5-------------------6--5--------6--5---6---5-|
E|3--3-3-3----5--5--5--5-5--8-8-------5---------3--3-3-3----5-5--------8-8-------5-------|
B|----------------------------------------7------------------------------------------7---|


G|--------------------------------------------------------------------------------------|
D|--------------------------------------------------------------------------------------|
A|-----------------------------6--5---6---5--------------------6--5--------6--5---6---5-|
E|3--3-3-3----5--5--6--5---8-8-------5---------3--3-3-3----5-5--------8-8-------5-------|
B|--------------------------------------7-------------------------------------------7---|
                             
                                  (when tomes come in)
G|---------------------------------------------------------------------------------------|
D|---------------------------------------------------------------------------------------| X2
A|-----------------------------6--5---6---5--------------------------------6--5---6---5--|
E|3--3-3-3----5--5--6--5---8-8------5--------3--3-3-3----5--5--6--5---8-8-------5--------|
B|--------------------------------------7-------------------------------------------7----|


[Outro]

G|--------------------------------------------------------------------------------------------------------|
D|--------------------------------------------------------------------------------------------------------|
A|-------------------------------6--5-------------------------------------------------6--5----------------|
E|3-3--3--3---6--6--5--5---8-8-8-----------------------3-3--3--3---6--6--5--5---8-8-8---------------------|
B|------------------------------------6---8---3--3--3--------------------------------------6---8---3--5--3|



G|--------------------------------------------------------------------------------------------------------|
D|---------------------------------------------------------------------------------------8----------------|
A|--------------------------------6--5------------------------------------------------6-------------------|
E|-3-3--3--3---6--6--5--5---8-8-8----------------------3-3--3--3---6--6--5--5---8-8-8---------------------|
B|-------------------------------------6---8---3--5--3-------------------------------------6---8---3--5--3|

G|--------------------------------------------------------------------------------------------------------|
D|---------------------------------------------------------------------------------------8----------------|
A|--------------------------------6--5------------------------------------------------6-------------------|
E|-3-3--3--3---6--6--5--5---8-8-8----------------------3-3--3--3---6--6--5--5---8-8-8---------------------|
B|-------------------------------------6---8---3--5--3-------------------------------------6---8---3--5--3|

G|----------------------------------------------------------------------------------------------------------|
D|-----------------------------------8---------------------------------------------------8------------------|
A|--------------------------------6---------------------------------------------------6---------------------|
E|-3-3--3--3---6--6--5--5---8-8-8----------------------3-3--3--3---6--6--5--5---8-8-8-----------------------|
B|-------------------------------------6---8---3--5--3-------------------------------------6---8---3--5--3-3|



************************************

| h  Hammer-on
| p  Pull-off

************************************

            
            
Suggest correction
Creating personal tab
Creating personal tab
You can edit any tab online and save it as your Personal.

You can edit, replace or remove any tab part or add personal notes – all changes will be seen only by you.

Personal tabs can be accessed anytime from any device, even offline.
Learn more »
Give kudos to tab author, rate the tab!
1 2 3 4 5
comments
print report bad tab
guest
You may want to rate the tab now too:
select rating
Wanna post a correction for this tab? Suggest correction