Oops, an error
Loading. Please wait.

Soitwouldbe - Music To My Eyes Bass Tab

10 views 1 this week
no commentswrite comment
1 2 3 4 5
3 more votes to show rating
add to favorites
launch autoscroll
font size
0
reset
guitar tuner
Autoscroll
slow
fast
+/-
esc
set tempo
stop
Help us to improve Ultimate-Guitar.com Take our survey!
×
Author
Difficulty
advanced
About this tab version
Its an original of our song. Was this info helpful? Yes No
[Intro Bass Solo]

G|--8-7-5---5----7------5-------------8-7-5---5---8-8h10-7---8-8h10--12--12--12--12--8-7h8p7-----------------|
D|5-------8--------8------3---6--5--5-------8------------------------------------------------8--8--8--10--10-|
A|-----------------------------------------------------------------------------------------------------------|
E|-----------------------------------------------------------------------------------------------------------|
A|-----------------------------------------------------------------------------------------------------------|

G|----------------------|
D|10--10--6-5h6p5--3--5-|
A|----------------------|
E|----------------------|
A|----------------------|


[Verse]


G|-------------------------------------------------------|
D|-------5-----------------------------------------------|(X2)
A|3--3-3---3---------5---------------------------6-5-3---|
E|-----------3--3--3---3--0h1--1---1--1--3--3--3-------6-|
A|-------------------------------------------------------|

G|------------------------------------------------------|
D|-------5h6--------------------------------------------|(X2)
A|3--3-3-------------6-5------------------------6-5-3---|
E|-----------3--3--3-----6-1--1---1--1--3--3--3-------6-|
A|------------------------------------------------------|



[Pre Chorus]

G|--------------------------------------------------------|
D|-------1------------3-5h6-6--------1h3p1-1--------------|
A|-----3---3--------5--------------3-----------5------6---|
E|1--1-------1-3--3-----------1--1-----------3---3--4---4-|
A|--------------------------------------------------------|

G|--------------------------------------------------------|
D|-------1------------3-5h6-6--------1h3p1-1---5------6---|
A|-----3---3--------5--------------3---------3---3--4---4-|
E|1--1-------1-3--3-----------1--1------------------------|
A|--------------------------------------------------------|

G|----------------------------------------------------------|
D|-------1------------3-5h6-6--------1h3p1-1----------6-6/8-|
A|-----3---3--------5--------------3-----------5----4-------|
E|1--1-------1-3--3-----------1--1-----------3---3----------|
A|----------------------------------------------------------|

G|----------------------------------------------------------|
D|-------1------------3-5h6-6--------1h3p1-1----------------|
A|-----3---3--------5--------------3------------------------|
E|1--1-------1-3--3-----------1--1-----------3-3-3-3-3-3-3-3|
A|----------------------------------------------------------|

[Chorus]

G|-----------------------------------------------------|
D|-----5-6-5------3--5--3------------------------------|
A|3--3-------1--1---------------3------------5-6-5-3---|
E|-------------------------1--1---1--1--3--3---------6-|
A|-----------------------------------------------------|

G|------------------3/5p0-----------------------------|
D|-----5-6-5------3-----------------------------------|(X2)
A|3--3-------1--1--------------3------------5-6-5-3---|
E|------------------------1--1---1--1--3--3---------6-|
A|----------------------------------------------------|

[After Chorus]
                              (Let Ring)
G|----5---------7-----------------------------5---------7-------------------------|
D|--5---5-----7---7-------3---------5-------5---5-----7---7-------3---------5-----|
A|3-------3/5-----------3---3-----5---5---3-------3/5-----------3---3-----5---5---|
E|------------------0h1-------1/3-------6-------------------0h1-------1/3-------6-|
A|--------------------------------------------------------------------------------|

G|----5/7--5-------7h8-7----------------------------------5/7--5-------7h8-7---------------------------|
D|--5------------7-------------3/5--3-------5-6-5-3-5---5------------7-------------3/5--3--------------|
A|3----------3/5-------------3------------5-----------3----------3/5-------------3------------3-----5--|
E|-----------------------0h1----------1/3------------------------------------0h1----------0h1---1-3---3|
A|-----------------------------------------------------------------------------------------------------|

G|--------------------------------------------------|
D|----3/5--3-------------------3/5--3-------5/6-5---|
A|--3------------3-----5-----3------------5---------|
E|1----------0h1---1-3---3-1----------1/3---------6-|
A|--------------------------------------------------|

[Harmony interlude] 

G|-------------------3/5p0-----------------------------|
D|-----5-----------3-----------------------------------|(X2)
A|3--3---3--0h1--1--------------3-----------5-6-5-4----|
E|-------------------------1--1---1--1-3--3---------6--|
A|-----------------------------------------------------|

G|-------------------3/5p0---------------------------------------------------------|
D|-----5-----------3---------------------------------------------------------------|
A|3--3---3--0h1--1---------------------------5-6-5-4----------------------5-7/8-8-8|
E|-------------------------1---1--1--1--3--3---------6--1---1--1--1--3--3----------|
A|---------------------------------------------------------------------------------|

[Verse 2]


G|-------------------------------------------------------|
D|-------5-----------------------------------------------|(X2)
A|3--3-3---3---------5---------------------------6-5-3---|
E|-----------3--3--3---3--0h1--1---1--1--3--3--3-------6-|
A|-------------------------------------------------------|

G|------------------------------------------------------|
D|-------5h6--------------------------------------------|(X2)
A|3--3-3-------------6-5------------------------6-5-3---|
E|-----------3--3--3-----6-1--1---1--1--3--3--3-------6-|
A|------------------------------------------------------|



[Pre Chorus 2]

G|--------------------------------------------------------|
D|-------1------------3-5h6-6--------1h3p1-1--------------|
A|-----3---3--------5--------------3-----------5------6---|
E|1--1-------1-3--3-----------1--1-----------3---3--4---4-|
A|--------------------------------------------------------|

G|--------------------------------------------------------|
D|-------1------------3-5h6-6--------1h3p1-1---5------6---|
A|-----3---3--------5--------------3---------3---3--4---4-|
E|1--1-------1-3--3-----------1--1------------------------|
A|--------------------------------------------------------|

G|----------------------------------------------------------|
D|-------1------------3-5h6-6--------1h3p1-1----------6-6/8-|
A|-----3---3--------5--------------3-----------5----4-------|
E|1--1-------1-3--3-----------1--1-----------3---3----------|
A|----------------------------------------------------------|

G|----------------------------------------------------------|
D|-------1------------3-5h6-6--------1h3p1-1----------------|
A|-----3---3--------5--------------3------------------------|
E|1--1-------1-3--3-----------1--1-----------3-3-3-3-3-3-3-3|
A|----------------------------------------------------------|

[Chorus 2]

G|-----------------------------------------------------|
D|-----5-6-5------3--5--3------------------------------|
A|3--3-------1--1---------------3------------5-6-5-3---|
E|-------------------------1--1---1--1--3--3---------6-|
A|-----------------------------------------------------|

G|------------------3/5p0-----------------------------|
D|-----5-6-5------3-----------------------------------|
A|3--3-------1--1--------------3------------5-6-5-3---|
E|------------------------1--1---1--1--3--3---------6-|
A|----------------------------------------------------|

G|-----------------------------------------------------|
D|-----5-6-5------3--5--3------------------------------|
A|3--3-------1--1---------------3------------5-6-5-3---|
E|-------------------------1--1---1--1--3--3---------6-|
A|-----------------------------------------------------|

G|------------------3/5p0-----------------------------------------------------------------|
D|-----5-6-5------3-----------------------------------------------------------------------|
A|3--3-------1--1--------------3----------------------------------------------------------|
E|------------------------1--1---1--1--1-1-1-1/3-3-3-3--1-1-1-1-1-1-1-1-3-3-3-3-3-3-3-3-6-|
A|----------------------------------------------------------------------------------------|


[After Chorus 2]
                              (Let Ring)
G|----5---------7-----------------------------5---------7-------------------------|
D|--5---5-----7---7-------3---------5-------5---5-----7---7-------3---------5-----|
A|3-------3/5-----------3---3-----5---5---3-------3/5-----------3---3-----5---5---|
E|------------------0h1-------1/3-------6-------------------0h1-------1/3-------6-|
A|--------------------------------------------------------------------------------|

G|----5/7--5-------7h8-7----------------------------------5/7--5-------7h8-7---------------------------|
D|--5------------7-------------3/5--3-------5-6-5-3-5---5------------7-------------3/5--3--------------|
A|3----------3/5-------------3------------5-----------3----------3/5-------------3------------3-----5--|
E|-----------------------0h1----------1/3------------------------------------0h1----------0h1---1-3---3|
A|-----------------------------------------------------------------------------------------------------|

G|----------------------------------------------------------------------------|
D|----3/5--3-------------------3/5--3-------3/5--3-------5/6-5-------5-6-5-3-5|
A|--3------------3-----5-----3------------3------------5-----------5----------|
E|1----------0h1---1-3---3-1----------0h1----------1/3---------1/3------------|
A|----------------------------------------------------------------------------|

[Solo]

G|-----------------------------------------------------------------------------------------------------|
D|-----------------------------------------------------------------------------------------------------|(X2)
A|-----10-----------8-----------6-----------5-----------10-----------8-----------5-----------5-6-5-3---|
E|8--8----8--0h6--6---6--0h4--4---4--0h3--3---3--0h8--8----8--0h6--6---6--0h3--3---3--0h8--8---------6-|
A|-----------------------------------------------------------------------------------------------------|

G|-----------------------------------------------------------------------------------------------------------|
D|-----------------------------------------------------------------------------------------------------------|
A|-----------------------------------------------------------------------------------------------------------|
E|1---1--1--1--1-1---1--1--1--1-3---3--3--3--3-3---3--4--4--3-1---1--1--1--1-1---1--1--1--1-3---3--3--3--3-3-|
A|-----------------------------------------------------------------------------------------------------------|

G|------------|------------------------------------------------------------|---------------------------------|
D|------------|------------------------------------------------------------|(X2)-----------------------------|
A|------------|------------------------------------------------------------|---------------------------------|
E|4-6--6--6--6|------------------------------4---4--4--6---6--3---3--3-4-3-|---------------------------------|
A|------------|3---3--3--3--3-1---1--1--1--1-------------------------------|----3---3--3--3--3-1---1--1--1--1|

G|----------------------------------------------------------------------------------------------|
D|----------------------------------------------------------------------------------------------|
A|----------------------------------------------------------------------------------------------|
E|4---4--4--6---6--3---3--3-4-3-1-3-------------------------------4---4--4--6---6--3---3--3-4-3-|
A|----------------------------------3---3--3--3--3-1---1--1--1--1-------------------------------|

G|-----------------------------------------------------------------------------------------------------------|
D|-----------------------------------------------------------------------------------------------------------|
A|-----------------------------------------------------------------------------------------------------------|
E|1---1--1--1--1-1---1--1--1--1-3---3--3--3--3-3---3--4--4--3-1---1--1--1--1-1---1--1--1--1-3---3--3--3--3-3-|
A|-----------------------------------------------------------------------------------------------------------|

G|------------|
D|------------|
A|------------|
E|4-6---6---6-|
A|------------|


[Outro After Chorus]
                              (Let Ring)
G|----5---------7-----------------------------5---------7-------------------------|
D|--5---5-----7---7-------3---------5-------5---5-----7---7-------3---------5-----|
A|3-------3/5-----------3---3-----5---5---3-------3/5-----------3---3-----5---5---|
E|------------------0h1-------1/3-------6-------------------0h1-------1/3-------6-|
A|--------------------------------------------------------------------------------|

G|----5/7--5-------7h8-7----------------------------------5/7--5-------7h8-7------------------------------|
D|--5------------7-------------3/5--3-------5-6-5-3-5---5------------7-------------3/5--3-------5-6-5-3-5-|
A|3----------3/5-------------3------------5-----------3----------3/5-------------3------------5-----------|
E|-----------------------0h1----------1/3------------------------------------0h1----------1/3-------------|
A|--------------------------------------------------------------------------------------------------------|

G|----5/7--5-------7h8-7-----------------------------------------------------------------------------|
D|--5------------7-------------3/5--3-------------------3/5--3-------------------3/5--3--------------|
A|3----------3/5-------------3------------3-----5-----3------------3-----5-----3------------3-----5--|
E|-----------------------0h1----------0h1---1-3---3-1----------0h1---1-3---3-1----------0h1---1-3---3|
A|---------------------------------------------------------------------------------------------------|


G|---------------------------|
D|----3/5--3-------5/6-5-----|
A|--3------------5---------3-|
E|1----------1/3---------3---|
A|---------------------------|




************************************

| h   Hammer-on
| p   Pull-off
| /   Slide up
| \   Slide down

************************************
Suggest correction
Give kudos to tab author, rate the tab!
1 2 3 4 5
comments
print report bad tab
guest
You may want to rate the tab now too:
select rating
Wanna post a correction for this tab? Suggest correction