Oops, an error
Loading. Please wait.

Soitwouldbe - No Warning bass

37 views 1 this week
no commentswrite comment
1 2 3 4 5
3 more votes to show rating
add to favorites
×
Save as Personal and add changes to this tab that will be seen only by you. Learn more ›
×
You can save this tab as Personal to edit and correct it or add notes. All changes will be seen only by you. Learn more »
launch autoscroll
font size
0
reset
guitar tuner
edit
Autoscroll
slow
fast
+/-
esc
set tempo
stop
Author
Difficulty
[Intro]

G|---------------------------------------------------------------------------|
D|---------------------------------------------------------------------------|
A|---------------------------------------------------------------------------|
E|0-0----0-0---------0-0----0-0--------0-0----0-0--------0-0-----0-0---------|
B|---------------------------------------------------------------------------|

G|---------------------------------------------------------------------------|
D|---------------------------------------------------------------------------|
A|--------7-8---------7-8-7-5----------7-8---------7-8-7-5-------------------|
E|0-0-5-6-----0-0-5-6----------0-0-5-6-----0-0-5-6---------------------------|
B|---------------------------------------------------------------------------|

G|---------------------------------------------------------------------------|
D|---------------------------------------------------------------------------|
A|--------7-8---------7-8-7-5----------7-8---------7-8-7---------------------|
E|0-0-5-6-----0-0-5-6----------0-0-5-6-----0-0-5-6---------------------------|
B|---------------------------------------------------------------------------|


[Verse]

G|----------------------------------------------------------------------------------|
D|----------------------------------------------------------------------------------|
A|---------------------0-0-0-0-0-0-0-0-0(X24)-1-1-1-1-------------------------------|
E|0-0-0-0-0-0-0-0-0(X32)-----------------------------1-1-1-1-0-0-0-0-0-0-0-0-(X32)--|
B|----------------------------------------------------------------------------------|

G|------------------------------------------------------------------------------|
D|------------------------------------------------------------------------------|
A|0-0-0-0-0-0-0-0-0-0(X24)-8-7-5------------------------------------------------|
E|-------------------------------8-7-5-8----------------------------------------|
B|------------------------------------------------------------------------------|


[Pre Chorus]

G|---------------------------------------------------------------------------|
D|---------------------------------------------------------------------------|
A|--------0--0--0--0--0---------0--0--0--0--0---------0--0--0--0--0---------0|
E|0-0-1-1---------------0-0-1-1---------------0-0-1-1---------------0-0-1-1--|
B|---------------------------------------------------------------------------|


[Chorus]

G|---------------------------------------------------------------------------------------|X2
D|---------------------------------------------------------------------------------------|
A|----------------------0--0-0-0-0----------------------------------0--0-0-0-0-----------|
E|0--0-0-0-0-1--1-1-1-1-----------------------0--0-0-0-0-1--1-1-1-1----------------------|
B|---------------------------------3--3-3-3-3----------------------------------3--3--0--0|


[Intro part 2]

G|---------------------------------------------------------------------------|
D|---------------------------------------------------------------------------|
A|--------7-8---------7-8-7-5----------7-8---------7-8-7-5-------------------|
E|0-0-5-6-----0-0-5-6----------0-0-5-6-----0-0-5-6---------------------------|
B|---------------------------------------------------------------------------|

G|---------------------------------------------------------------------------|
D|---------------------------------------------------------------------------|
A|--------7-8---------7-8-7-5----------7-8---------7-8-7---------------------|
E|0-0-5-6-----0-0-5-6----------0-0-5-6-----0-0-5-6---------------------------|
B|---------------------------------------------------------------------------|


[Verse 2]

G|----------------------------------------------------------------------------------|
D|----------------------------------------------------------------------------------|
A|---------------------0-0-0-0-0-0-0-0-0(X24)-1-1-1-1-------------------------------|
E|0-0-0-0-0-0-0-0-0(X32)-----------------------------1-1-1-1-0-0-0-0-0-0-0-0-(X32)--|
B|----------------------------------------------------------------------------------|

G|----------------------------------------------------------------------------------------------|
D|----------------------------------------------------------------------------------------------|
A|0-0-0-0-0-0-0-0-0(X24)-1-1-1-1-----------------------------2h3-2h0---------------------2h3-2h0|
E|------------------------------1-1-1-1-0-0-0-0-0-0-0-0(X12) --------0-0-0-0-0-0-0-0(X12)-------|
B|----------------------------------------------------------------------------------------------|

G|------------------------------------------------------------------------------------------------|
D|------------------------------------------------------------------------------------------------|
A|0-0-0-0-0-0-0-0-0(X24)-1-1-1-1------------------------------0-0-0-0-0-0-0-0-0(X24)-8-7-5--------|
E|------------------------------1-1-1-1-0-0-0-0-0-0-0-0-0(X32)-----------------------------8-7-5-8|
B|------------------------------------------------------------------------------------------------|


[Pre Chorus 2]

G|---------------------------------------------------------------------------|
D|---------------------------------------------------------------------------|
A|--------0--0--0--0--0---------0--0--0--0--0---------0--0--0--0--0---------0|
E|0-0-1-1---------------0-0-1-1---------------0-0-1-1---------------0-0-1-1--|
B|---------------------------------------------------------------------------|


[Chorus 2]

G|----------------------------------------------------------------------------------------|
D|-------------------------------------------------------------------------2--------------|
A|----------------------0--0-0-0-0----------------------------------0--0-0---0------------|
E|0--0-0-0-0-1--1-1-1-1-----------------------0--0-0-0-0-1--1-1-1-1-----------------------|
B|---------------------------------3--3-3-3-3----------------------------------3--3--0--0-|

G|-----------------------------------------------------------------------------------------|
D|---------------------------------------------------------------------------2-------------|
A|----------------------0--0-0--1--0----------------------------------0--0-0---0-----------|
E|0--0-0-0-0-1--1-1-1-1-------------------------0--0-0-0-0-1--1-1-1-1----------------------|
B|-----------------------------------3--3-3-3-3----------------------------------3--3--0--0|


[Breakdown]

G|--------------------------------------------------------------------------------------|
D|--------------------------------------------------------------------------------------|
A|--------------------------------------------------------------------------------------|
E|0-0----0--0--0----0--0--0----0--0---0---0---1---1-------0--0-0-000-0-000-0-000-1--1--0|
B|--------------------------------------------------3-3-3-------------------------------|

G|----------------------------------------------------------------------------------------------|
D|----------------------------------------------------------------------------------------------|
A|----------------------------------------------------------------------------------------------|
E|0-000-0-000-0-000-000-1--1--0--0-000-0-000-0-00000000-1--1--0--0-000-0-000-0-3333/5555-1--1--0|
B|----------------------------------------------------------------------------------------------|

G|-----------------------------------------------------------------------------------------------------------|
D|-----------------------------------------------------------------------------------------------------------|
A|-----------------------------------------------------------------------------------------------------------|
E|0-000-0-000-0-000-000-1--1--0--0-000-0-000-0-000-000-1--1--0--0-000-0-000-0-3-3-3-3-1--1--0--0-000-0-000-0-|
B|-----------------------------------------------------------------------------------------------------------|


G|-------------------------------------------------------------------------------------------------|
D|-------------------------------------------------------------------------------------------------|
A|-------------------------------------------------------------------------------------------------|
E|3-5-3h0-1--1--0---0--0---0--0--0-0--1--1--0---0--0---0--0--0-0--1--1--0---0--0----0--0--0-0--1--1|
B|-------------------------------------------------------------------------------------------------|

G|----------------------------------------------------------------------------------------------------------|
D|----------------------------------------------------------------------------------------------------------|
A|----------------------------------------------------------------------------------------------------------|
E|0---0--0---0--0--------------0---0--0---0--0--0-0--1--1--0---0--0----0--0--0-0--1--3--0---0--0---0--0--0-0|
B|-----------------3--3--0--0-------------------------------------------------------------------------------|

G|---------------------------------------------------------------------------|
D|---------------------------------------------------------------------------|
A|---------------------------------------------------------------------------|
E|1--1--0---0--0---0--0------1-3--0-[0--0-1--1-0]X4--------------------------|
B|----------------------3-0--------------------------------------------------|


[Solo under part]

G|---------------------------------------------------------------------------|
D|---------------------------------------------------------------------------|
A|---------------------------7---------7---------5--------8------------------|
E|0-0-0-0-0-0-0-0-0(X32)-5--5-5--5-5--5-5--5\3--3-3-3--6-6-6--6--------------|
B|---------------------------------------------------------------------------|

G|---------------------------------------------------------------------------------------------|
D|---------------------------------------------------------------------------------------------|
A|----------------------2h3p2--------------------------------7---------7---------5--------8----|
E|0-0-0-0-0-0-0-0-0(X15)------0-0-0-0-0-0-0-0-0(x13)1111-5--5-5--5-5--5-5--5\3--3-3-3--6-6-6--6|
B|-------------------------------------------------------------------- --------------|

G|---------------------------------------------------------------------------------------------------|
D|---------------------------------------------------------------------------------------------------|
A|-----------------------2h3p2-----------------------------------0-0-0-0-0-0-0-0-0(X24)1--1--1-------|
E|0-0-0-0-0-0-0-0-0(X13)------0-0-0-0-0-0-0-0-0(x12)1-1-1-1------------------------------------1---1-|
B|---------------------------------------------------------------------------------------------------|

G|--------------------------------------------------------------------------------------------------------| 
D|-------------------------------------------------------------------------------2h3----------------------|
A|----------------------2h3p2------------------------------0-0-0-0-0-0-0-0-0(X13)---0-0-0-0-0-0-0-0-0(X12)|
E|0-0-0-0-0-0-0-0-0(X13)------0-0-0-0-0-0-0-0-0(x12)1-1-1-1-----------------------------------------------|
B|--------------------------------------------------------------------------------------------------------| 


G|-------------|------------------------------------------------------------------------------------------|
D|-------------|------------------------------------------------------------------------------------------|X2
A|8-7-5--------|---------0--0--0--0--0-------------------------------0--0--0--0--0------------------------|
E|------8-7-5-8|-0-0-1-1---------------0-0-1-1---------------0-0-1-1---------------0-0-1-1----------------|
B|-------------|-------------------------------3--3--3--3--3--------------------------------3--3---0--0--0|

G|---------------------------------------------------------------------------------------|
D|---------------------------------------------------------------------------------------|X4
A|----------------------0--0-0-0-0----------------------------------0--0-0-0-0-----------|
E|0--0-0-0-0-1--1-1-1-1-----------------------0--0-0-0-0-1--1-1-1-1----------------------|
B|---------------------------------3--3-3-3-3----------------------------------3--3--0--0|

G|---------------------------------------------------------------------------------|
D|---------------------------------------------------------------------------------|
A|---------------------------------------------------------------------------------|
E|0--0-1--1-0----0--0-1--1-0----0--0-1--1-0-0-0-0-0-0-0-0(x8)--0--0-1--1-0---------|
B|---------------------------------------------------------------------------------|


************************************
| h   Hammer-on
| p   Pull-off
| /   Slide up
************************************

            
            
Suggest correction
Creating personal tab
Creating personal tab
You can edit any tab online and save it as your Personal.

You can edit, replace or remove any tab part or add personal notes – all changes will be seen only by you.

Personal tabs can be accessed anytime from any device, even offline.
Learn more »
Give kudos to tab author, rate the tab!
1 2 3 4 5
comments
print report bad tab
guest
You may want to rate the tab now too:
select rating
Wanna post a correction for this tab? Suggest correction