Oops, an error
Loading. Please wait.

Soldiers Die Saints - This Is Vengance Tab

144 views 1 this week
no commentswrite comment
1 2 3 4 5
3 more votes to show rating
add to favorites
launch autoscroll
font size
0
reset
how to read this tab
guitar tuner
Autoscroll
slow
fast
+/-
esc
set tempo
stop
Help us to improve Ultimate-Guitar.com Take our survey!
×
Difficulty
intermediate
D----------------------------------------------------------------------------|
A----------------------------------------------------------------------------|
F----------------------------------------------------------------------------|
C-0~-0~---------------------------------------------------------8-7-5--5-7---|(2x)
G-0~-0~--5-5-5-5--5-8-10-7--5-5-5-5---5-8-4---5-5-5-5--5-8-10-7-------8------|
C-0~-0~-0--------8--------0---------8-------0---------8----------------------|

D---------------------------------------------------------------------------|
A---------------------------------------------------------------------------|
F---------------------------------------------------------------------------|
C-0------------8-8-8-8-7-7-7-7-5-5-5-5-7-7-7-7-8-------------5--------------|(6x)
G-0--------------------------------------------8-------------5--------------|
C-0-0-0-0-0-0-0--------------------------------8-8-8-8-8-8-8-5-5-5-5-5-5-5--|
  . . . . . . .                                   . . . . . .  . . . . . .

D--------------------------------------------------------------------|
A--------------------------------------------------------------------|
F--------------------------------------------------------------------|
C-0---------------------------------0--------------------------------| 4x
G-0---------------------------------0--------------------------------|
C-0-0-0-0-0-0--0-0-0-0-0--0-0-0-0-0-0-0-0-0-0-0--0-0-0-0-0--0-0-0-0-0|
    . . . . .  . . . .    . . . . .   . . . . .  . . . . .  . . . . .

D------------------------------------------------------|
A------------------------------------------------------|
F------------------------------------------------------|
C-0-------------------------0--------------------------|
G-0-------------------------0--------------------------| 4x
C-0-0-0-0-0-0--0-0-0--0-0-0-0-0-0-0-0-0--0-0-0--0-0-0--|

D---------------------------------------------------------------------------|
A---------------------------------------------------------------------------|
F---------------------------------------------------------------------------|
C-0------------8-8-8-8-7-7-7-7-5-5-5-5-7-7-7-7-8-------------5--------------|(6x)
G-0--------------------------------------------8-------------5--------------|
C-0-0-0-0-0-0-0--------------------------------8-8-8-8-8-8-8-5-5-5-5-5-5-5--|
  . . . . . . .                                  . . . . . .   . . . . . .

D---------------------------------------------------------------------------------------------|
A---------------------------------------------------------------------------------------------|
F---------------------------------------------------------------------------------------------|
C-0-0-0-0-0-0-0-0-0-8-8-8-8-8-8-8-8-8-10-10-10-10-10-10-10-10-3-3-3-3-3-3-3-3-7-7-7-7-7-7-7-7-|
G-0-0-0-0-0-0-0-0-0-8-8-8-8-8-8-8-8-8-10-10-10-10-10-10-10-10-3-3-3-3-3-3-3-3-7-7-7-7-7-7-7-7-|
C-0-0-0-0-0-0-0-0-0-8-8-8-8-8-8-8-8-8-10-10-10-10-10-10-10-10-3-3-3-3-3-3-3-3-7-7-7-7-7-7-7-7-|

D-----------------------------------------------------------------------------------------------
A-----------------------------------------------------------------------------------------------
F-----------------------------------------------------------------------------------------------
C-8-7-7-8-7-8-7-7-8-7-10-7-7-8-7-10-8-7-8-------0-7-7-8-7-0-7-7-8-7-10-7-7-8-7-10-8-7-8--------8
G-8---------8---------10-----------------10-8-7-0---------0---------10------------------10-8-7-8        
C-8---------8---------10------------------------0---------0---------10-------------------------8
                                                                                               
                                                                               Above (4x)

D---------------|
A---------------|
F---------------|
C-8~-8/10-7~-0~-|
G-8~-8/10-7~-0~-|
C-8~-8/10-7~-0~-|

Breakdown

D-----------------------------------------------|
A-----------------------------------------------|
F-----------------------------------------------|
C-0-0-0-0-0--0-0--0-0-0-0-0-0---????????????----|
G-0-0-0-0-0--0-0--0-0-0-0-0-0---?????????????---|
C-0-0-0-0-0--0-0--0-0-0-0-0-0---??????????????--|


MWL 12-31-05
Suggest correction
Give kudos to tab author, rate the tab!
1 2 3 4 5
comments
print report bad tab
guest
You may want to rate the tab now too:
select rating
Wanna post a correction for this tab? Suggest correction