Oops, an error
Loading. Please wait.

Somerset - All You Are Bass Tab

59 views 1 this week
no commentswrite comment
1 2 3 4 5
please rate
add to favorites
launch autoscroll
font size
0
reset
guitar tuner
Tab Pro tools
  • play this tab
  • loop segment
  • change instrument
  • show fretboard
  • metronome
Autoscroll
slow
fast
+/-
esc
set tempo
stop
Difficulty
intermediate
Song: All You Are
Artist: Somerset
Album: Pandora
Tabbed by: Rod Dockter

Alright this song has a pretty fast rhythm, just listen for the bass movement.

Intro

G-----------------------------------------|
D-------------------66666666--------------|
A-----------------------------------------|
E-4>--------------------------------------|

Main Verse

G-------------------4---------------------|
D-----------------------------------------|
A---4-6-4-------7-7---7--4h6---4h6--------|
E-7-------7-6-7--------------7-----7-6-2--|

G-------------------4---------------------|
D-----------------------------------------|
A---4-6-4-------7-7---7--4h6>-------------|
E-7-------7-6-7---------------------------|

Pre-Chorus

G-----------------------------------------|
D-----------------------------------------|
A-77777777-66666666-----------------------|
E-----------------------------------------|

Chorus

G-----------------------------------------|
D-----------------------------------------|
A---------7-7-777-------------------------|
E-4-4-444---------9-9-999-2-2-222---------|

G-----------------------------------------|
D-----------------------------------------|
A---------2-2-222-4-4-444-----------------|
E-0-0-000-----------------2-2-222---------|

Verse
Chorus

Bridge

Wait for guitar then:

G---------------------------------------------------------|
D---------------------------------------------------------|
A---------------------------------------------------------|
E-7-7-777-7-7-777-6-6-666-6-6-666-3-3-333-3-3-333-33333333|

Chorus

Outro

G------------------------------------------------|
D------------------------------------------------|
A------------------------------------------------|
E-11>---7>---6>------------------------------2-2-|

Thanks, Enjoy Guys
comments
We did not receive enough feedback on this tab! Please rate:
print report bad tab
1 2 3 4 5
I want to post or [tab]
guest
You may want to rate the tab now too:
select rating
Please do not post tabs as comments. Select "correction" instead!