Oops, an error
Loading. Please wait.

Something Simple - Ill Be There Chords

269 views 1 this week
no commentswrite comment
1 2 3 4 5
3 more votes to show rating
add to favorites
launch autoscroll
font size
0
reset
transpose
0
reset
display chords
guitar tuner
Autoscroll
slow
fast
+/-
esc
set tempo
stop
Help us to improve Ultimate-Guitar.com Take our survey!
×
Author
I'll Be There

Intro :F    G  F#   G#


Verse 1:
F                 G
A man can only wonder, 
      F#                  G#
Whats going through their head.
   F                       G
It comes through you like thunder,
    F#              G#
You feel as if your dead.


Verse 2:
       F               G
You're not amongst the people,
    F#                G#
Who cannot tell whats right.
F                    G
You must climb that steeple,
    F#             G#
And shout into the night.


Chorus:
C#m                 G#
If I'll be there, you must be there too.
C#m                      G#                    G  F#  F
If you cannot find me, I mustn't look for you

Instrumental: F    G  F#   G#

Verse 3:
F                    G
The creature thats inside you,
F#                    G#
Feels like it's locked up.
    F             G
You cannot let it hide from you,
   F#             G#
Or let itself show up.


Verse 4: 
F              G
Take me to the special place,
F#                 G#
Where only you can go.
F                   G
Get up and get back in the race,
F#               G#
But you'll never know.


Chorus:
C#m                 G#
If I'll be there, you must be there too.
C#m                      G#                    G  F#  F
If you cannot find me, I mustn't look for you


Guitar solo:
  F                      G
e|---------------------13---------------------------|
B|-----------------16b------16--13------------------|
G|-----15b-13-----------------------13-------15-----|
D|-13----------15-----------------------15b---------|
A|-----------------------------------------------13-|
E|--------------------------------------------------|
  F#                     G#
e|--------------------------------------------------|
B|----------------------17-------------16-----------|
G|-14---------------14-------------14----------16---|
D|-----16b------------------14h16b---------14-----16|
A|----------16b-------------------------------------|
E|---------------17b--------------------------------|
 F                      G
e|---------------------15---------------------------|
B|-----------------16b------15--13------------------|
G|-----15b-13-----------------------13-------15-----|
D|-13----------15-----------------------15b---------|
A|-----------------------------------------------13-|
E|--------------------------------------------------|
  F#                     G#
e|--------------------------------------------------|
B|----------------------17-------------16-----------|
G|-14---------------14-------------14----------16---|
D|-----16b------------------14h16b---------14-----16|
A|----------16b-------------------------------------|
E|---------------17b--------------------------------|


Bridge:

Now let that creature fly free from its 

Sanctuary

Let it fly into the wild, and live with

Dignity


Chorus:
C#m                 G#
If I'll be there, you must be there too.
C#m                      G#                    G  F#  F
If you cannot find me, I mustn't look for you


Verse 5:
F                G
If you think outside the box,
F#                    G#
and consider what you know.
F                      G
Muster up the strength of an ox
F#                       G#
And through the darkness go.


Verse 6:
F                                G
At the end of it all, you find a light,
F#                    G#
And head towards that way.
F                        G
Walk into day and out of night.
F#                       G#
Never again will you feel grey


Chorus:
C#m                 G#
If I'll be there, you must be there too.
C#m                      G#                    G  F#  F
If you cannot find me, I mustn't look for you
Suggest correction
Give kudos to tab author, rate the tab!
1 2 3 4 5
comments
print report bad tab
guest
You may want to rate the tab now too:
select rating
Wanna post a correction for this tab? Suggest correction