Oops, an error
Loading. Please wait.

Something Simple - Mind Games Chords

269 views 3 this week
no commentswrite comment
1 2 3 4 5
please rate
add to favorites
launch autoscroll
font size
0
reset
transpose
0
reset
- display chords -
guitar tuner
Tab Pro tools
  • play this tab
  • loop segment
  • change instrument
  • show fretboard
  • metronome
Autoscroll
slow
fast
+/-
esc
set tempo
stop
Contributor
Mind Games

Intro :

E|---2------3------2-----3---------2------3-------2-|
B|-----3------3------3-----3---------3------3-----3-|
G|-------2------2------2-----2---------2------2---2-|
D|------------------------------------------------0-|

Verse 1:
D             G         Em
Just let your consience win,
      D                 G          Em
It'll get you out of the mess you're in
C                       A    
Don't look back, keep going forwards
C              A
Keep your motivation onward

Pre-Chorus:
F                              Am
You walk along this isolated track,
F                                    Am  
With nothing but the clothes on your back.

Chorus :
Dm                         A
You dont know whats coming next, 
Dm                                  A
Your life is ruined , the world is fixed.
G
Your life is turning inside out,
A                 D   A
Without a shadow of a doubt.

Verse 2:
D                         G            Em
Your mind is ruined, your thoughts are broken
D                   G      Em 
There are no doors left to open
C                        A
No-one knows whats going through your head
C                        A
Theres nothing else that can be said

Pre-Chorus:
F                              Am
You walk along this isolated track,
F                                    Am  
With nothing but the clothes on your back.

Chorus :
Dm                         A
You dont know whats coming next, 
Dm                                  A
Your life is ruined , the world is fixed.
G
Your life is turning inside out,
A                 D   A
Without a shadow of a doubt.

Guitar Solo:
    D        G     Em     D        G     Em
e|--------------------------------------------------|
B|--------------------------------------------------|
G|--------------------------------------------------|
D|------------5--5--2---------------5--5--2---------|
A|--5b-5b--5--------------5b-5b--5------------------|
E|--------------------------------------------------|
  C          A              C          A                            
e|--------------------------------------------------|
B|--------------------------------------------------|
G|--------------------------------------------------|
D|------------5~-5----------------------5~5---------|
A|-3-3-3-3-3--------5--3-----3-3-3-3-3-------5--3---|
E|--------------------------------------------------|

E|---2------3------2-----3---------2------3-------2-|
B|-----3------3------3-----3---------3------3-----3-|
G|-------2------2------2-----2---------2------2---2-|
D|------------------------------------------------0-|
A|--------------------------------------------------|
E|--------------------------------------------------|

Verse 3:
D             G         Em
Just let your consience win,
      D                 G          Em
It'll get you out of the mess you're in
C                       A    
Don't look back, keep going forwards
C              A
Keep your motivation onward

Outro :F     Am  F     Am
comments
We did not receive enough feedback on this tab! Please rate:
print report bad tab
1 2 3 4 5
I want to post or [tab]
guest
You may want to rate the tab now too:
select rating
Please do not post tabs as comments. Select "correction" instead!