Oops, an error
Loading. Please wait.

Son Of Dad - Lost Bass Tab

104 views 1 this week
no commentswrite comment
1 2 3 4 5
please rate
add to favorites
launch autoscroll
font size
0
reset
guitar tuner
Autoscroll
slow
fast
+/-
esc
set tempo
stop
Help us to improve Ultimate-Guitar.com Take our survey!
×
Author
Lost - Son of Dad
Just Another Ska Band

Intro/Verse X6
G |------------------------------------------------------------------------------|
D |-------------------------------------------------------------------5----------|
A |-------5--6--6--7--8--8--5--6--6--6--8-h10p8--------5--6--6--7--8-----8--6--5-|
E |-6--6-----------------------------------------6--6----------------------------|

"But you're walking away..."
G |----------------------------------------------------------------------------------------|
D |----------------------------------------8-----------------------------------------------|
A |-6--6--8--8--------------6--6--8--8--------8--7--6-----6--6--8--8--------------6--8-----|
E |-------------6--6--3--4--------------6-----------------------------6--6--3--4--------6--|


Fast Part X4
G |------------------------------------------------------------------|
D |-------------------------5--5--6--6--8--------10-8--7-----5-----7-|
A |----5--5--6--6--8-----6--------------------8-----------6-----8----|
E |-6----------------------------------------------------------------|


Horns X2
G |------------------------------------------------------------------|
D |------------------------------------------------------------------|
A |-------------6--6--6--6--6--8-----8--8--8--8--6--6--6--6--6-------|
E |-6--6--6--6--------------------------------------------------6----|


"I Lost Respect..."
G |------------------------------------------------------|
D |------------------------------------------------------|
A |-------------6--6--6--6--6--------------8--8--8--8--8-|
E |-6--6--6--6-----------------6--6--6--6----------------|

G |---------------------------|
D |---------------------------|
A |-------------6--6--8--6----|
E |-6--6--6--6--------------6-|
Suggest correction
What's this?
You can suggest a correction to this tab. Community and Mods will review your correction and vote to approve or reject it.
comments
We did not receive enough feedback on this tab! Please rate:
print report bad tab
1 2 3 4 5
guest
You may want to rate the tab now too:
select rating
Please do not post tabs as comments. Select "correction" instead!