Oops, an error
Loading. Please wait.

Sonseed - Jesus Is My Friend Bass Tab

8,767 views 36 this week
1 commentread comment
1 2 3 4 5
excellent!
x 6
add to favorites
launch autoscroll
font size
0
reset
guitar tuner
Autoscroll
slow
fast
+/-
esc
set tempo
stop
Help us to improve Ultimate-Guitar.com Take our survey!
×
Author
Zantet 213
Okay so me and some friends wanted to learn this song so I went and figured out the 
I'm pretty sure this is accurate. Anyways...

Song: Jesus Is My Friend
Artist: Sonseed
Album: ??? I don't know
Tabbed by: Josh- zantetsword@gmail.com
Tuning: Bass, Standard (E A D G)

-Intro-

 G |--------------------------------|
 D |----------------5-5-----9-------|
 A |7-7-----5-5---------------------|
 E |--------------------------------|

-Chorus-

 G |--------------------------------|
 D |----6-9-----6-9-----------------|
 A |7-------7-----------4-7-----6-9-|
 E |----------------5-------7-------|


-Verse-

 G |----------------------------------| The note in () can be
 D |--------------------6-9-----------| played either way,
 A |------------4-6-7----------(4)6---| I find the (9) easier,
 E |5-------5---------------7--(9)----| but it's just prefence.


 G |------------------------|
 D |------------6-9---------|
 A |----4-6-7----------(4)6-|
 E |5---------------7--(9)--|repeat until the line...


'He is one who'll never leave you flat'
 G |----------------------------------|
 D |----------11---11-9---9---9-------|
 A |9-9-9-9-9----9--------------------|
 E |----------------------------------|


-Verse 2 & 3-

Plays the same as the first time, only with a different ending fill

 G |-------------------------------------|
 D |--11---11---11---11-9---9---9--------|
 A |9----9----9----9----------------14-\-|
 E |-------------------------------------|


-Break-

 G |-----------------------------------|
 D |----------------5-5-----9----------|x2
 A |7-7-----5-5-----------------(14)-\-|Only play (14-\-)
 E |-----------------------------------|second time


The epic bass solo is the same as the chorus.

-Verse 4-

Once again, same with a different ending.

 G |-----------------------------------|
 D |------------------------8-9--------|
 A |9-9-9-9-9-9-9-9-11-9-11-------14-\-|
 E |-----------------------------------|


-Outro-

 G |-------------------------------|
 D |-------------------------------|
 A |7-7-----5-5-----10-10/14-\-7---|
 E |-------------------------------|

Full order-

Intro
Chorus
Verse 1
Chorus
Verse 2
Chorus
Break
Bass Solo
Chorus
Verse 3
Chorus
Verse 4
Suggest correction
What's this?
You can suggest a correction to this tab. Community and Mods will review your correction and vote to approve or reject it.
comments
print report bad tab
1 comment total.
0 reply
MountApple 171 wrote on October 5 2010, 07:55 pm

This is really good!

guest
You may want to rate the tab now too:
select rating
Please do not post tabs as comments. Select "correction" instead!