Oops, an error
Loading. Please wait.

Soul Riders - It Could Be You Bass Tab

86 views 1 this week
no commentswrite comment
1 2 3 4 5
please rate
add to favorites
launch autoscroll
font size
0
reset
guitar tuner
Autoscroll
slow
fast
+/-
esc
set tempo
stop
Help us to improve Ultimate-Guitar.com Take our survey!
×
Author
Difficulty
novice
First the guitar plays alone 4 times.

Intro:
G|---------------------------------------|
D|---------------------------------------|
A|----9-8-7-7--9-8-7-7--9-8-7-7--9-8-7-7-|
E|--7--------7---------7--------7--------|

Verse:
G|-----------------------------------------|
D|-----------------------------------------|
A|-----------5-5-5-5-5-4-4-4-4-4-----------|
E|-5-5-5-5-5---------------------2-2-2-2-2-|

G|-----------------------------------------|
D|-----------------------------------------|
A|-----------5-5-5-5-5-4-4-4-4-4-----------|
E|-5-5-5-5-5---------------------2-2-2-2-2-|

Chorus:
G|-----------------------------------------|
D|-----------------------------------------|
A|-----------7-7-7-7-7---------------------|
E|-7-7-7-7-7-----------5-5-5-5-5-2-2-2-2-2-|

G|-----------------------------------------|
D|-----------------------------------------|
A|-----------7-7-7-7-7---------------------|
E|-7-7-7-7-7-----------5-5-5-5-5-2-2-2-2-2-|

Intro:
G|---------------------------------------|
D|---------------------------------------|
A|----9-8-7-7--9-8-7-7--9-8-7-7--9-8-7-7-|
E|--7--------7---------7--------7--------|

"Bridge":
G|-----------------------------------------|
D|-----------------------------------------|
A|-----------10-10-9-7-----------10-10-9-7-|
E|-7-7-7-7-7-----------7-7-7-7-7-----------|

Second Verse: 

G|-----------------------------------------|
D|-----------------------------------------|
A|-----------5-5-5-5-5-4-4-4-4-4-----------|
E|-5-5-5-5-5---------------------2-2-2-2-2-|

G|-----------------------------------------|
D|-----------------------------------------|
A|-----------5-5-5-5-5-4-4-4-4-4-----------|
E|-5-5-5-5-5---------------------2-2-2-2-2-|

Chorus:
G|-----------------------------------------|
D|-----------------------------------------|
A|-----------7-7-7-7-7---------------------|
E|-7-7-7-7-7-----------5-5-5-5-5-2-2-2-2-2-|

G|-----------------------------------------|
D|-----------------------------------------|
A|-----------7-7-7-7-7---------------------|
E|-7-7-7-7-7-----------5-5-5-5-5-2-2-2-2-2-|

Intro: 
G|---------------------------------------|
D|---------------------------------------|
A|----9-8-7-7--9-8-7-7--9-8-7-7--9-8-7-7-|
E|--7--------7---------7--------7--------|

Bassolo:
G|---------------------------------------|
D|---------------------------------------|
A|----9-8-7-7--9-8-7-7--9-8-7-7--9-8-7-7-|
E|--7--------7---------7--------7--------|

G|---------------------------------------|
D|---------------------------------------|
A|----9-8-7-7--9-8-7-7--9-8-7-7--9-8-7-7-|
E|--7--------7---------7--------7--------|

Intro:
G|---------------------------------------|
D|---------------------------------------|
A|----9-8-7-7--9-8-7-7--9-8-7-7--9-8-7-7-|
E|--7--------7---------7--------7--------|

G|---------------------------------------|
D|---------------------------------------|
A|----9-8-7-7--9-8-7-7--9-8-7-7--9-8-7-7-|
E|--7--------7---------7--------7--------|

The End:
E|-7-|
Suggest correction
Give kudos to tab author, rate the tab!
1 2 3 4 5
comments
print report bad tab
guest
You may want to rate the tab now too:
select rating
Wanna post a correction for this tab? Suggest correction