Oops, an error
Loading. Please wait.

Souls Of Tomorrow - Clouds Tab

42 views 1 this week
no commentswrite comment
1 2 3 4 5
2 more votes to show rating
add to favorites
launch autoscroll
font size
0
reset
how to read this tab
guitar tuner
Autoscroll
slow
fast
+/-
esc
set tempo
stop
Help us to improve Ultimate-Guitar.com Take our survey!
×
Author
Difficulty
intermediate
------------------------------------------------------------------------
                        “Clouds” Souls of Tomorrow
------------------------------------------------------------------------
Tabbed by: GuitarGod Tone
Email:soulsoftomorrow@yahoo.com

Tuning:Standard/Clean


Intro-Clean
e|-----6--------6-------6-------6-------6-------6-------6-------6-------|
B|---2---2---2----2---2---2---2---2---3---3---3---3---3---3---3---3---3-|
G|-0-------0--------0-------0-------0-------0-------0-------0-------0---| x3
D|----------------------------------------------------------------------|
A|----------------------------------------------------------------------|
E|----------------------------------------------------------------------|

then
e|-----7-------7-------7-------7-------7-------7-------7-------7--------|
B|---3---3---3---3---3---3---3---3---4---4---4---4---4---4---4---4---4--|
G|-0-------0-------0-------0-------0-------0-------0-------0-------0----| x3
D|----------------------------------------------------------------------|
A|----------------------------------------------------------------------|
E|----------------------------------------------------------------------|

Main Riff/Outro
e|-7--77---7-7---7-7-7----7--7--7---77---7---7--------------------------|
B|-4--55---4-4-h-5-5-5----0--0--0---55---5---4--------------------------|
G|-0--00---0-0---0-0-0----0--0--0---00---0---0--------------------------|
D|----------------------------------------------------------------------|
A|----------------------------------------------------------------------|
E|----------------------------------------------------------------------|


e|-7--7--7---77---7---7-------------------------------------------------|
B|-0--0--0---44---4---5-------------------------------------------------|
G|-0--0--0---00---0---0-------------------------------------------------|  x5
D|----------------------------------------------------------------------|
A|----------------------------------------------------------------------|
E|----------------------------------------------------------------------|

Bridge
e|---13----13----13----13----13----13----13----13----13----13----13-----|
B|-10---10----10----10----10----10----10----11----11----11----11--------|
G|----------------------------------------------------------------------|
D|----------------------------------------------------------------------|
A|----------------------------------------------------------------------|
E|----------------------------------------------------------------------|

e|----13-----13------13-------------------------------------------------|
B|-11----11------11-----------------------------------------------------|
G|----------------------------------------------------------------------| x4
D|----------------------------------------------------------------------|
A|----------------------------------------------------------------------|
E|----------------------------------------------------------------------|


************************************

| /   slide up
| \   slide down
| h   hammer-on
| p   pull-off
| ~   vibrato
| +   harmonic
| x   Mute note
| b   Bend
| pb  Pre-bend
| br  Bend release
| pbr Pre-bend release
| brb Bend release bend

Song Structure
Intro
Main Riff
Bridge
Main Riff

************************************
Suggest correction
Give kudos to tab author, rate the tab!
1 2 3 4 5
comments
print report bad tab
guest
You may want to rate the tab now too:
select rating
Wanna post a correction for this tab? Suggest correction