Oops, an error
Loading. Please wait.

Souls Of Tomorrow - Sorrow Tab

47 views 1 this week
no commentswrite comment
1 2 3 4 5
please rate
add to favorites
launch autoscroll
font size
0
reset
how to read this tab
guitar tuner
Autoscroll
slow
fast
+/-
esc
set tempo
stop
Help us to improve Ultimate-Guitar.com Take our survey!
×
Author
Difficulty
novice
----------------------------------------------------------------------------
                             "Sorrow" - Souls of Tomorrow
----------------------------------------------------------------------------

Tabbed by:GuitarGod Tone
Email:soulsoftomorrow@yahoo.com

Tuning:Standard Clean

Main Riff
e|--------------------------------------------------------------------------|
B|----------------------------------------------0-0-0-0-0-0-----------------|
G|-----------------------------------0-0-0-0-0--0-0-0-0-0-0-----------------|
D|---2---------------2---------------0-0-0-0-0--2-2-2-2-2-2-----------------|
A|------3-3-------------33---2--0----2-2-2-2-2--0-0-0-0-0-0-----------------|
E|------------0--3-------------------0-0-0-0-0------------------------------|

e|--------------------------------------------------------------------------|
B|--------------------------------------------------------------------------|
G|--2--2--2--2--2----0-0-0-0-0----------------------------------------------|
D|--0--0--0--0--0----0-0-0-0-0---0--0--0------------------------------------|
A|-------------------3-3-3-3-3---0--0--0------------------------------------|
E|-------------------0-0-0-0-0---0--0--0------------------------------------|


Chorus


e|--------------------------------------------------------------------------|
B|--------------------------------------------------------------------------|
G|--3--3--3---2--2--2-2--3-3----3--3--3-3---2-2-2-2-2--3--3-----------------|
D|--0--0--0---0--0--0-0--0-0----0--0--0-0---0-0-0-0-0--0--0-----------------|
A|--------------------------------------------------------------------------|
E|--------------------------------------------------------------------------|

e|--------------------------------------------------------------------------|
B|--------------------------------------------------------------------------|
G|---0--0--0-----0--0--0--0-------------------------------------------------|
D|---0--0--0-----2--2--2--2-------------------------------------------------|
A|---------------0--0--0--0-------------------------------------------------|
E|--------------------------------------------------------------------------|
Suggest correction new What's this?
You can suggest a correction to this tab. Community and Mods will review your correction and vote to approve or reject it.
comments
We did not receive enough feedback on this tab! Please rate:
print report bad tab
1 2 3 4 5
guest
You may want to rate the tab now too:
select rating
Please do not post tabs as comments. Select "correction" instead!