Oops, an error
Loading. Please wait.

Soulscarred - Let Them Bleed Tab

37 views 1 this week
no commentswrite comment
1 2 3 4 5
please rate
add to favorites
launch autoscroll
font size
0
reset
how to read this tab
guitar tuner
Autoscroll
slow
fast
+/-
esc
set tempo
stop
Help us to improve Ultimate-Guitar.com Take our survey!
×
Author
SoulScarred - Let Them Bleed


Tuning: D

Guitar 1

d|---------------------------------------------------------------------------|
A|---------------------------------------------------------------------------|
F|---------------------------------------------------------------------------|
C|-5--7--5--7--5-7-9--7--9--10--9-7-5--7--5--7--5-7--------------------------|
G|--------------------------------------------------------7-----------5------|
D|--00-00-00-00-0-0-00-00-00--00-0-0-00-00-00-00-0--3-5-6---6-5-2-3-5---5-3--|


d|---------|-----------------------------------------------------------------|
A|---------|-----------------------------------------------------------------|
F|--------.|-----------------------------------------------------------------|
C|--------.|-----------------------------------------------------------------|
G|---------|-----------------------------------------------------------------|
D|-2-3-4-5-|-----------------------------------------------------------------|


Guitar 2

d|---------------------------------------------------------------------------|
A|---------------------------------------------------------------------------|
F|---------------------------------------------------------------------------|
C|-----------------------------------------------------7--------------5------|
G|-7--5--7--5--7-9-10--9--10--12--10-9-7--5--7--5-7-5--7--------------5------|
D|--00-00-00-00-0-0--00-00--00--00--0-0-00-00-00-0-0---5--------------3------|



d|----------|----------------------------------------------------------------|
A|----------|----------------------------------------------------------------|
F|---------.|----------------------------------------------------------------|
C|---------.|----------------------------------------------------------------|
G|-44-4-----|----------------------------------------------------------------|
D|-22-2-----|----------------------------------------------------------------|


Melodi
d|---------------------------------------------------------------------------|
A|---------------------------------------------------------------------------|
F|------------9--------7--------------------7-------4------------------------|
C|--------------9----9---7---7----------------7---7---5---5------------------|
G|-7757-7p5h7-----10-------9-----7757-7p5h7-----9-------6--------------------|
D|---------------------------------------------------------------------------|


VERS

d|---------------------------------------------------------------------------|
A|---------------------------------------(8)---------(7)---------------------|
F|----------------------------------------7-(7)---(7)-7-(7)---(7)------------|
C|-------------------------------------------9-(9)-9-----7-(7)-7-------------|
G|----------------------------------------------10----------9----------------|
D|-000-00-0-000-000-00-0-000-000-00-0-000------------------------------------|


Tuning: D

d|----------------------------------------|-----------|-----------------------|
A|----------------------------------------|-----------|-----------------------|
F|----------------------------------------|-----------|-----------------------|
C|----------------------------------------|-----------|-----------------------|
G|----------------------------------------|-----------|-------------5-6-------|
D|-000-00-0-000-000-00-0-000-000-00-0-000-|-000-000-0-|-5-7-9-5-7-9-----------|


PRE:
d|---------------------------------------------------------------------------|
A|---------------------------------------------------------------------------|
F|---------------------------------------------------------------------------|
C|-------------------------------------------------------------3-6-----------|
G|-7-----1-2---1---3/4-------------7-----1-2---1---3/4-----2-5---------------|
D|---0-0-----3---2-1/2-0-0-000-000---0-0-----3---2-1/2-1-4-------------------|



d|---------------------------------------------------------------------------|
A|---------------------------------------------------------------------------|
F|---------------------------------------------------------------------------|
C|---------------------------------------------3-----------4-----------5-----|
G|-7-----1-2---1---3/4-------------7-----1-2---------2-3---------3-4---------|
D|---0-0-----3---2-1/2-0-0-000-000---0-0-----3---1-1-----4---2-2-----5---3-3-|



d|---------------------------------------------------------------------------|
A|---------------------------------------------------------------------------|
F|---------------------------------------------------------------------------|
C|---------------------------------------------------------------------------|
G|-4-5-----------------------------------------------------------------------|
D|-----6---------------------------------------------------------------------|


REF
d|---------------------------------------------------------------------------|
A|---------------------------------------------------------------------------|
F|---------------------------------------------------------(7-6)-(5-4)-(3-2)-|
C|--------------------0h2----------------------------------------------------|
G|-8-8-8888-8-8-8888--0h2---5h7-7---5h7-7-8-8-8888-8-8-8888-7-6---5-4---3-2--|
D|-5h6-6666-5h6-6666--0---0------000------5h6-6666-5h6-6666-----0-----0-----0|
       mmmm     mmmm      m


d|---------------------------------------------------------------------------|
A|---------------------------------------------------------------------------|
F|----------------------------------9----------------------------------------|
C|-------------------------0h2--------10----9-------9------------------------|
G|-------8-8-8888-8-8-8888-0h2--5-7------12---10-12---8-8-8888-8-8-8888------|
D|-2-3-4-5h6-6666-5h6-6666-0--0-----------------------5h6-6666-5h6-6666------|


d|---------------------------------------------------------------------------|
A|---------------------------------------------------------------------------|
F|---------------------------------------------------------------------------|
C|---------------------------------------------------------------------------|
G|-222-222-2-----------------------------------------------------------------|
D|-000-000-0-----------------------------------------------------------------|

Intro
1/2 Vers
Pre
Ref

Bridge(over intro-melodi)
d|---------------------------------------------------------------------------|
A|---------------------------------------------------------------------------|
F|---------------------------------------------------------------------------|
C|-2----7--7--2----7--4--2--4--9--2------------------------------------------|
G|-2----5--6--2----5--6--2--5--6--2----222-222-2-----------------------------|
D|-0----------0----------0--------0----000-000-0-----------------------------|

d|---------------------------------------------------------------------------|
A|---------------------------------------------------------------------------|
F|---------------------------------------------------------------------------|
C|-/6-----------/7-----------/8-----------/9---------------------------------|
G|----1-2---2------2-3---3------3-4---3------4-5---4-------------------------|
D|--------3---2--------4---3--------5---4--------5---4-----------------------|

d|---------------------------------------------------------------------------|
A|---------------------------------------------------------------------------|
F|---------------------------------------------------------------------------|
C|---------------------------------------------------------------------------|
G|---8888--8888--8--0h2----------------8888--8888--8--9-8----7-6----5--------|
D|-5h66665h66665h6000--0000000000000-5h66665h66665h600---0000---0000---00----|

d|-----------------------------------------|--------------|------------------|
A|-----------------------------------------|--------------|------------------|
F|--------------------9----------7-------9-|--------------|------------------|
C|-------------------10-10101010-9-9999-10-|--------------|------------------|
G|---8888--8888--8-------------------------|--------------|------------------|
D|-5h66665h66665h600-----------------------|0000000000000-|-0-000-000-000--0-|

PRE*2
Suggest correction
What's this?
You can suggest a correction to this tab. Community and Mods will review your correction and vote to approve or reject it.
comments
We did not receive enough feedback on this tab! Please rate:
print report bad tab
1 2 3 4 5
guest
You may want to rate the tab now too:
select rating
Please do not post tabs as comments. Select "correction" instead!