Oops, an error
Loading. Please wait.

Soulscarred - This Game Youll Loose Tab

79 views 1 this week
no commentswrite comment
1 2 3 4 5
3 more votes to show rating
add to favorites
launch autoscroll
font size
0
reset
how to read this tab
guitar tuner
Autoscroll
slow
fast
+/-
esc
set tempo
stop
Help us to improve Ultimate-Guitar.com Take our survey!
×
Author
Difficulty
Tuning
intermediate
D G C F A D
-------------------------------------------------------------------------------
                   This Game You'll Loose - SoulScarred
-------------------------------------------------------------------------------
Tabbed by:Chris
Email:barrymagnum666@hotmail.com

Tuning: D

d|---------------------------------------------------------------------------|
A|---------------------------------------------------------------------------|
F|---------------------------------------------------------------------------|
C|---------------------------------------------------------------------------|
G|---------2---------2---------------------2---------2-----------------------|
D|-000-000-0-000-000-0-000---------000-000-0-000-000-0-000-----------000-000-|

e|-----------------------------------------------------------------|---------|
B|-----------------------------------------------------------------|---------|
G|----------------------------------------------------------------.|---------|
D|----------------------------------------------------------------.|---------|
A|---------2---------2-----2-2-2-2---------2---------2-----2-2-2-2-|---------|
E|-000-000-0-000-000-0-000-0-0-0-0-000-000-0-000-000-0-000-0-0-0-0-|-000-000-|

Vers 1

e|---------------------------------------------------------------------------|
B|---------------------------------------------------------------------------|
G|---------------------------------------------------------------------------|
D|-2--------------2--------------2-------------------------------------------|
A|-2--------------2--------------2-------------------------------------------|
E|-0-0000000------0-0000000------0-0000000-----------------------------------|


Guitar 1
e|---------------------------------------------------------------------------|
B|---------------------------------------------------------------------------|
G|---------------------------------------------------------7/9---------------|
D|-2-----0-----2------5-4-5----------2-----0-----2-----7-5-------------------|
A|-2-----0-----2--------------2-0-2--2-----0-----2---------------------------|
E|-0-0-0-0-0-0-0-0-0--------0--------0-0-0-0-0-0-0-0-0--0-0------------------|

Guitar 2
e|---------------------------------------------------------------------------|
B|---------------------------------------------------------------------------|
G|---------------------------------------------------------------------------|
D|-2-----0-----2------9-7-9----------2-----0-----2----10-9-------------------|
A|-2-----0-----2------7-5-7---5-4-4--2-----0-----2---------9h10--------------|
E|-0-0-0-0-0-0-0-0-0--------0-3-2-3--0-0-0-0-0-0-0-0-0--0-0------------------|

Pre
e|---------------------------------|-----------------------------------------|
B|---------------------------------|-----------------------------------------|
G|---------------------------------|-----------------------------------------|
D|---------------------------------|-----------------------1-----------------|
A|-7---2---3---0---0---3---2---2---|-7---2---3---0---2-3-3---3-3-2-2---------|
E|---0---0---4---3---3---3---3---2-|---0---0---4---3-------------------------|

e|---------------------------------|-----------------------------------------|
B|---------------------------------|-----------------------------------------|
G|---------------------------------|----------------------------------------.|
D|---------------------------------|-----------------------1-1--------------.|
A|-7---2---3---0---0---3---2---2---|-7---2---3---0---2-3-3-----3-3-2-2-------|
E|---0---0---4---3---3---3---3---2-|---0---0---4---3-------------------------|

Ref
Guitar 1
e|---------------------------------------------------------------------------|
B|---------------------------------------------------------------------------|
G|---------------------------------------------------------------------------|
D|-5---4----5-4----------------7-5--------4-5--------------------------------|
A|-7---6----3-2----------7-3---8-7---6----2-3--------------------------------|
E|--000-000-----0-565-00-5-1-0----000-000-----5-4-0-4-3-0-3-2-0-2-1-0-0-1-2-3|

e|---------------------------------------------------------------------------|
B|---------------------------------------------------------------------------|
G|---------------------------------------------------------------------------|
D|-----------------------------------------2---------------------------------|
A|-----------------------------------7-3-2---3---5-6-7-8-9-10-9-10-0-0-7-9-7-|
E|-10-0-0-9-0-0-10-0-10-0-0-9-0-10-0-5-1-0-----0-----------------------------|

e|-----------------------------|---------------------------------------------|
B|-----------------------------|---------------------------------------------|
G|-----------------------------|---------------------------------------------|
D|-----------2----2-2----------|---------------------------------------------|
A|-9-0-0-0-9-2----3-2------5-6-|---------------------------------------------|
E|-----------0-00---0-0000-----|---------------------------------------------|

Solo fill                           * *** * *** ** *** ** *** ** *** * *** *
e|---------------------------------------------------------------------------|
B|----------------------------------7-000-8-000-10-000-12-000-10-000-8-000-7-|
G|------------------------------8-9------------------------------------------|
D|-------------------------9-10----------------------------------------------|
A|-7-6-7-/-3-2-3/10-9-10-9---------------------------------------------------|
E|-------0-------------------------------------------------------------------|
 
  *** *            sweep
e|---------------------12h15\19-15--------------15p19p15--------------20p17--|
B|-000-5-------------12-----------17----------17--------17----------17-----19|
G|-------7b9r7/10--12---------------16------16------------16------16---------|
D|------------------------------------17--17----------------17--17-----------|
A|--------------------------------------19--------------------19-------------|
E|---------------------------------------------------------------------------|

e|-----17p17p14------14------------------------15p17p19p17p15--------------22|
B|---19--------16--16------------------15p17p19--------------19p17p15p17p19--|
G|-20------------17------------14p16p17--------------------------------------|
D|---------------------14p16p17----------------------------------------------|
A|---------------------------------------------------------------------------|
E|---------------------------------------------------------------------------|

e|b24r22---------------------------------------------------------------------|
B|------17\------------------------------------------------------------------|
G|---------------------------------------------------------------------------|
D|---------------------------------------------------------------------------|
A|---------------------------------------------------------------------------|
E|---------------------------------------------------------------------------|



| /  slide up
| \  slide down
| h  hammer-on
| p  pull-off
| ~  vibrato
| +  harmonic
| x  Mute note
===============================================================================
Suggest correction
Give kudos to tab author, rate the tab!
1 2 3 4 5
comments
print report bad tab
guest
You may want to rate the tab now too:
select rating
Wanna post a correction for this tab? Suggest correction