Oops, an error
Loading. Please wait.

Soundproof - Shoot Me Tab

101 views 1 this week
no commentswrite comment
1 2 3 4 5
3 more votes to show rating
add to favorites
launch autoscroll
font size
0
reset
how to read this tab
guitar tuner
Autoscroll
slow
fast
+/-
esc
set tempo
stop
Help us to improve Ultimate-Guitar.com Take our survey!
×
Author
Difficulty
intermediate
Soundproof are an Irish Band who have
just released there first EP just listened
to it and i decided to learn it
so here i am 2 mins later so here is the first song of the EP Shoot Me

http://www.myspace.com/soundproof

-----------------------------------------------------------------------------
                             Soundproof-Shoot Me
-----------------------------------------------------------------------------
Tabbed by:GarethyQuinnRedmond
Email:Garethqr@hotmail.com

Tuning:EADGBE

Intro + chorus
e|-----------------------------------------------------|
B|-----------------------------------------------------|
G|------------------9---8------------------------------| 3x
D|--11-11----9h11------------11---9--------------------|
A|--11-11----------------------------------------------|
E|--9--9-----------------------------------------------|

e|-----------------------------------------------------|
B|-----------------------------------------------------|
G|-----------------------------------------------------|
D|----7----7---7--/--9-----9---------------------------|
A|----7----7---7--/--9-----9---------------------------|
E|----5----5---5--/--7-----7---------------------------|


Verse's Each chord is is repeated until the singer goes lower or higher
e|-----------------------------------------------------|
B|-----------------------------------------------------|
G|-----------------------------------------------------|
D|--11----7-----9--------------------------------------|
A|--11----7-----9--------------------------------------|
E|--9-----5-----7--------------------------------------|


chorus
e|-----------------------------------------------------|
B|-----------------------------------------------------|
G|------------------9---8------------------------------| 3x
D|--11-11----9h11------------11---9--------------------|
A|--11-11----------------------------------------------|
E|--9--9-----------------------------------------------|

e|-----------------------------------------------------|
B|-----------------------------------------------------|
G|-----------------------------------------------------|
D|----7----7---7--/--9-----9---------------------------|
A|----7----7---7--/--9-----9---------------------------|
E|----5----5---5--/--7-----7---------------------------|

Solo 2:22
e|---------------------------------------------------------|
B|---------------------------------------------------------|
G|------------------9--------------------------------------| repeat 3 times
D|--11--11--11--11-----11----------------------------------|
A|---------------------------------------------------------|
E|---------------------------------------------------------|

e|--------------------------------------------------------------------------|
B|--------------------------------------------------------------------------|
G|------------------------------------------9---------------------9---------|
D|---11--11--11--11---9-------------9----------11----------9----------11----|
A|-----------------------11---9h11------11------------9h11-----11-----------|
E|--------------------------------------------------------------------------|

e|--------------------------------------------------9b----------------------|
B|----------------------------------------9----12---12b---------------------|
G|----------------------9-----------11--------------------11b(R)--9(R)-11(R)|
D|---------11----9h11-------9h11--------------------------------------------|
A|---9h11-------------------------------------------------------------------|
E|--------------------------------------------------------------------------|

e|--------------------------------------------------------------------------|
B|--------------------------------------------------------------------------|
G|--9h11p9------------------------------------------------------------------|
D|-----------11p9h11--------------------------------------------------------|
A|--------------------------------------------------------------------------|
E|--------------------------------------------------------------------------|

After Solo
e|--------------------------------------------------------------------------|
B|--------------------------------------------------------------------------|
G|--------------------------------------------------------------------------|
D|----11----11-------11---11------11--11---------7-----7--7/9---------------|
A|----11----11-------11---11------11--11---------7-----7--7/9---------------|
E|----9-----9--------9----9-------9---9----------5-----5--5/7---------------|


chorus
e|-----------------------------------------------------|
B|-----------------------------------------------------|
G|------------------9---8------------------------------| 3x
D|--11-11----9h11------------11---9--------------------|
A|--11-11----------------------------------------------|
E|--9--9-----------------------------------------------|

e|-----------------------------------------------------|
B|-----------------------------------------------------|
G|-----------------------------------------------------|
D|----7----7---7--/--9-----9---------------------------|
A|----7----7---7--/--9-----9---------------------------|
E|----5----5---5--/--7-----7---------------------------|

Solo 2 3:19 im 100% sure this is wrong =]
e|--------------------------------------------------------------------------|
B|--9-----------------------------------------------------------------------|
G|-------11----9----11b---9--------------------11b9-------------9-------11--|
D|------------------------------11----11b--9-----------9h11-------9h11------|
A|--------------------------------------------------------------------------|
E|--------------------------------------------------------------------------|

e|--------------------------------9(R)-----12(R)---11(R)--9(R)---12(R)-11(R----|
B|---------9------------12b----------------------------------------------------|
G|--9h11---------9h11----------------------------------------------------------|
D|-----------------------------------------------------------------------------|
A|-----------------------------------------------------------------------------|
E|-----------------------------------------------------------------------------|

e|--------------------------------------------------------------------------|
B|--9(R)---12(R)---9--------------------------------------------------------|
G|--------------------11b--------9---8--------------------------------------|
D|---------------------------------------9---11-----------------------------|
A|--------------------------------------------------------------------------|
E|--------------------------------------------------------------------------|

Verse's Each chord is is repeated until the singer goes lower or higher
e|-----------------------------------------------------|
B|-----------------------------------------------------|
G|-----------------------------------------------------|
D|--11----7-----9--------------------------------------|
A|--11----7-----9--------------------------------------|
E|--9-----5-----7--------------------------------------|


Then Finish on a lovely Db
e|--------------------------------------------------------------------------|
B|--------------------------------------------------------------------------|
G|--------------------------------------------------------------------------|
D|-------11-----------------------------------------------------------------|
A|-------11-----------------------------------------------------------------|
E|-------9------------------------------------------------------------------|

|(R) repeat (a lot)!
| /  slide up
| \  slide down
| h  hammer-on
| p  pull-off
| ~  vibrato
| +  harmonic
| x  Mute note
===================================================================
Suggest correction
Give kudos to tab author, rate the tab!
1 2 3 4 5
comments
print report bad tab
guest
You may want to rate the tab now too:
select rating
Wanna post a correction for this tab? Suggest correction