Oops, an error
Loading. Please wait.

Soundstreet - Traffic Jam Tab

10 views 1 this week
no commentswrite comment
1 2 3 4 5
3 more votes to show rating
add to favorites
launch autoscroll
font size
0
reset
how to read this tab
guitar tuner
Autoscroll
slow
fast
+/-
esc
set tempo
stop
Help us to improve Ultimate-Guitar.com Take our survey!
×
Author
Difficulty
intermediate
About this tab version
First soundstreet tab ever b. Was this info helpful? Yes No
[Intro]

e|--------------x-x-------------------------------------x-x-x-x---x--|
B|--------------x-x---8--------10p8---------------------x-x-x-x---x--|
G|--------------x-x---8--------10p8---------------------x-x-x-x---x--|
D|-8h10---8h10--x-x-------10----------10p8--8h10--8h10--x-x-x-x---x--|
A|--------------x-x--------------------------------------------------|
E|-------------------------------------------------------------------|


[Fills]

e|--------------------------------------------------------------------|
B|-----8---10---11----------------------------------------------------|
G|-----8---10---11----------------------------------------------------|
D|-------------------------------------------8------------8-----------|
A|------------------------------------8h10---------8h10---------8h10--|
E|--------------------------------------------------------------------|


[Verse is same as intro]


[Chorus]

"There was a lot of traffic"
e|-------6-------6--6--x-x---8------3-3---x-x---------------|
B|-------6-------6--6--x-x---8------3-3---x-x---------------|
G|-------7-------7--7--x-x---9------4-4---x-x---------------|     
D|-------8-------8--8--x-x---10-----5-5---x-x-----s10---s8--|
A|-------8-------8--8--x-x---10-----5-5---x-x-----s8----s6--|
E|-------6-------6--6--x-x---8------3-3---x-x---------------|(x4)

                    "And i caaaaaaant get home to you"


Riff before Andrew goes off:

e|--------8-x-x-8---x-x--11---10---------------------------------------------------------|
B|--------8-x-x-8---x-x--11---10---------------------------------------------------------|
G|--------8-x-x-8---x-x--11---10---------------------------------------------------------|
D|----------x-x-----x-x------------------------------------------------------------------|
A|---------------------------------------------------------------------------------------|
E|---------------------------------------------------------------------------------------|


[Solo]
dont feel like writing it all out, just improvise off of Cm blues pentatonic scale

e|----------------------------------------------8----11---13------------------------|
B|-----------------------------------8--10--11--------------------------------------|
G|----------------------------8--10-------------------------------------------------|
D|----------------------8--10-------------------------------------------------------|
A|-------------8--9--10-------------------------------------------------------------|
E|----8---11------------------------------------------------------------------------|


[Outro]
(same as intro)


************************************

| x  Dead note
| h  Hammer-on
| p  Pull-off
| s  Slap

************************************
Suggest correction
Give kudos to tab author, rate the tab!
1 2 3 4 5
comments
print report bad tab
guest
You may want to rate the tab now too:
select rating
Wanna post a correction for this tab? Suggest correction