Oops, an error
Loading. Please wait.

Southern Genocide - Genocide Tab

80 views 1 this week
no commentswrite comment
1 2 3 4 5
please rate
add to favorites
launch autoscroll
font size
0
reset
how to read this tab
guitar tuner
Autoscroll
slow
fast
+/-
esc
set tempo
stop
Help us to improve Ultimate-Guitar.com Take our survey!
×
Author
Difficulty
Tuning
advanced
C G C F A D
-----------------------------------------------------------------------
                        Southern Genocide – Genocide
-----------------------------------------------------------------------
Tabbed by:Thex-Guitarist
Email: SouthernGenocide@yahoo.com

Tuning: Drop C

e|--------------------------------------------------------------------|
B|-----9-7-9---7-9-----9-7-9---7-9-----9-7-9---7-9-----9-7-9---7-9----|
G|---7-------7-------7-------7-------7-------7-------7-------7--------|
D|-0---------------0---------------0---------------0------------------|
A|--------------------------------------------------------------------|
C|--------------------------------------------------------------------|

e|--------------------------------------------------------------------|
B|-----9-7-9---7-9-----9-7-9---7h9-9--------9-7-9---7h9-9---7~--------|
G|---7-------7-------7-------7------------7-------7-------7-----------|
D|-0---------------0--------------------0-----------------------------|
A|--------------------------------------------------------------------|
C|--------------------------------------------------------------------|

e|--------------------------------------------------------------------|
B|--------------------------------------------------------------------|
G|--------------------------------------------------------------------|
D|-9~-7~-7---7-7~-5~-5---5-5~-4~-4-5-9~-7~-7---7-7~-5~-5---5-5~-4~-4-5|
A|-7~-5~---5---5~-3~---3---3~-2~-2-3-7~-5~---5---5~-3~---3---3~-2~-2-3|
C|-------------------------------.-.-------------------------------.-.|
  
e|--------------------------------------------------------------------|
B|--------------------------------------------------------------------|
G|----------------------------------------------------0~--------------|
D|-9~-7~-7---7-7~-5~-5---5-5~-4~-4-5~~--5---5-6---5---0~--------------|
A|-7~-5~---5---5~-3~---3---3~-2~-2-3~~----3-----3---3-0~--------------|
C|-------------------------------.--------------------0~--------------|

e|--------------------------------------------------------------------|
B|-----9-7-9---7-9-----9-7-9---7-9-----9-7-9---7-9-----9-7-9---7-9----|
G|---7-------7-------7-------7-------7-------7-------7-------7--------|
D|-0---------------0---------------0---------------0------------------|
A|--------------------------------------------------------------------|
C|--------------------------------------------------------------------|

e|--------------------------------------------------------------------|
B|-----9-7-9---7-9-----9-7-9---7h9-9--------9-7-9---7h9-9---7~--------|
G|---7-------7-------7-------7------------7-------7-------7-----------|
D|-0---------------0--------------------0-----------------------------|
A|--------------------------------------------------------------------|
C|--------------------------------------------------------------------|

e|--------------------------------------------------------------------|
B|--------------------------------------------------------------------|
G|--------------------------------------------------------------------|
D|-9-9-9-9-7--7-7-7-7-5-5-5-5-9-9-9-9-7--7-7-7-7-5-5-5-5-9-9-9-9-7—-7-|
A|-7-7-7-7-5--5-5-5-5-3-3-3-3-7-7-7-7-5--5-5-5-5-3-3-3-3-7-7-7-7-5—-5-|
C|---------.--.-----------------------.--.-----------------------.--.-|

e|--------------------------------------------------------------------|
B|--------------------------------------------------------------------|
G|--------------------------------------------------------------------|
D|--7-7-7-5-5-5-5-9-9-9-9-7~—7~-7-7-7-5-5-5-5-9-9-9-9-7~-7~-7-7-7-5-5-|
A|--5-5-5-3-3-3-3-7-7-7-7-5~—5~-5-5-5-3-3-3-3-7-7-7-7-5~-5~-5-5-5-3-3-|
C|--------------------------------------------------------------------|

e|-------------------------------------|
B|-------------------------------------|
G|----------------------------------0~-|
D|--5-5-9-9-9-9-7~—7~-7-7-7-5-5-5-5-0~-|
A|--3-3-7-7-7-7-5~—5~-5-5-5-3-3-3-3-0~-|
C|----------------------------------0~-|

e|-7/12~--12-11-10-9-8-7h8h9h7h8h9h7h8h9h7h8h9p8h9p8p7h9p8p7h9p8p7h9p8|
B|--------------------------------------------------------------------|
G|--------------------------------------------------------------------|
D|--------------------------------------------------------------------|
A|--------------------------------------------------------------------|
C|--------------------------------------------------------------------|

e|p7-7/12/15-12-10p9-10p9-7-9p7-5-7p5-3-5p3h5pph0~--------------------|
B|--------------------------------------------------------------------|
G|--------------------------------------------------------------------|
D|--------------------------------------------------------------------|
A|--------------------------------------------------------------------|
C|--------------------------------------------------------------------|

e|--------------------------------------------------------------------|
B|-----9-7-9---7-9-----9-7-9---7-9-----9-7-9---7-9-----9-7-9---7-9----|
G|---7-------7-------7-------7-------7-------7-------7-------7--------|
D|-0---------------0---------------0---------------0------------------|
A|--------------------------------------------------------------------|
C|--------------------------------------------------------------------|

e|--------------------------------------------------------------------|
B|-----9-7-9---7-9-----9-7-9---7h9-9--------9-7-9---7h9-9---7~--------|
G|---7-------7-------7-------7------------7-------7-------7-----------|
D|-0---------------0--------------------0-----------------------------|
A|--------------------------------------------------------------------|
C|--------------------------------------------------------------------|

e|--------------------------------------------------------------------|
B|--------------------------------------------------------------------|
G|--------------------------------------------------------------------|
D|-9~-7~-7---7-7~-5~-5---5-5~-4~-4-5-9~-7~-7---7-7~-5~-5---5-5~-4~-4-5|
A|-7~-5~---5---5~-3~---3---3~-2~-2-3-7~-5~---5---5~-3~---3---3~-2~-2-3|
C|-------------------------------.-.-------------------------------.-.|
 
e|--------------------------------------------------------------------|
B|--------------------------------------------------------------------|
G|----------------------------------------------------0~--------------|
D|-9~-7~-7---7-7~-5~-5---5-5~-4~-4-5~~--5---5-6---5---0~--------------|
A|-7~-5~---5---5~-3~---3---3~-2~-2-3~~----3-----3---3-0~--------------|
C|-------------------------------.--------------------0~--------------|

e|--------------------------------------------------------------------|
B|-----9-7-9---7-9-----9-7-9---7-9-----9-7-9---7-9-----9-7-9---7-9----|
G|---7-------7-------7-------7-------7-------7-------7-------7--------|
D|-0---------------0---------------0---------------0------------------|
A|--------------------------------------------------------------------|
C|--------------------------------------------------------------------|

e|--------------------------------------------------------------------|
B|-----9-7-9---7-9-----9-7-9---7h9-9--------9-7-9---7h9-9---7~--------|
G|---7-------7-------7-------7------------7-------7-------7-----------|
D|-0---------------0--------------------0-----------------------------|
A|--------------------------------------------------------------------|
C|--------------------------------------------------------------------|

e|--------------------------------------------------------------------|
B|--------------------------------------------------------------------|
G|--------------------------------------------------------------------|
D|-9-9-9-9-7--7-7-7-7-5-5-5-5-9-9-9-9-7--7-7-7-7-5-5-5-5-9-9-9-9-7—-7-|
A|-7-7-7-7-5--5-5-5-5-3-3-3-3-7-7-7-7-5--5-5-5-5-3-3-3-3-7-7-7-7-5—-5-|
C|---------.--.-----------------------.--.-----------------------.--.-|

e|--------------------------------------------------------------------|
B|--------------------------------------------------------------------|
G|--------------------------------------------------------------------|
D|--7-7-7-5-5-5-5-9-9-9-9-7~—7~-7-7-7-5-5-5-5-9-9-9-9-7~-7~-7-7-7-5-5-|
A|--5-5-5-3-3-3-3-7-7-7-7-5~—5~-5-5-5-3-3-3-3-7-7-7-7-5~-5~-5-5-5-3-3-|
C|--------------------------------------------------------------------|

e|-------------------------------------|
B|-------------------------------------|
G|----------------------------------0~-|
D|--5-5-9-9-9-9-7~—7~-7-7-7-5-5-5-5-0~-|
A|--3-3-7-7-7-7-5~—5~-5-5-5-3-3-3-3-0~-|
C|----------------------------------0~-|

e|-7/12~--12-11-10-9-8-7h8h9p7h8h9p7h8h9p7h8h9p8h9p8p7h9p8p7h9p8p7h9p8|
B|--------------------------------------------------------------------|
G|--------------------------------------------------------------------|
D|--------------------------------------------------------------------|
A|--------------------------------------------------------------------|
C|--------------------------------------------------------------------|

e|p7-7/12/15-12-10p9-10p9-7-9p7-5-7p5-3-5p3h5p3p0-12-10p9-10p9-7-9p7-5|
B|--------------------------------------------------------------------|
G|--------------------------------------------------------------------|
D|--------------------------------------------------------------------|
A|--------------------------------------------------------------------|
C|--------------------------------------------------------------------|

e|-7p5-3-5p3h5p3p0~---------------------------------------------------|
B|--------------------------------------------------------------------|
G|-------------------7/0----------------------------------------------|
D|-------------------7/0----------------------------------------------|
A|-------------------7/0----------------------------------------------|
C|-------------------7/0----------------------------------------------|


| .  play short
| /  slide up
| \  slide down
| h  hammer-on
| p  pull-off
| ~  vibrato
| +  harmonic
| x  Mute note
=======================================================================
Suggest correction
Give kudos to tab author, rate the tab!
1 2 3 4 5
comments
print report bad tab
guest
You may want to rate the tab now too:
select rating
Wanna post a correction for this tab? Suggest correction