Oops, an error
Loading. Please wait.

Soviet Soviet - Royal Casino Tab

1,301 views 3 this week
no commentswrite comment
1 2 3 4 5
please rate
add to favorites
launch autoscroll
font size
0
reset
how to read this tab
guitar tuner
Autoscroll
slow
fast
+/-
esc
set tempo
stop
Help us to improve Ultimate-Guitar.com Take our survey!
×
Author
Difficulty
novice
Soviet Soviet
Royal Casino - http://youtu.be/EuypE9h-btQ
Standard Tuning
played with a little gain (distortion) and effex
the start before chorus and singing is just harmonics and pick slides up the neck 
and the bass line.

let ring ~~
mute x
slide /

Chorus

e|----------------------------------------|
B|----------------------------------------|
G|----------------------------------------|
D|----------------------------------------|
A|-----7-7--10-10--7-7-----7-7-7h10-------|
E|--8-8----------------8-8-----------5~~--|

Bridge

e|----------------------------------------|
B|----------------------------------------|
G|----------------------------------------|
D|----------------------------------------|
A|----------------------------------------|
E|---5~~---------5~~---------5~~----------|

Verse

e|----------------------------------------|
B|----------------------------------------|
G|----------------------------------------|
D|----------------------------------------|
A|---3-3-3-3-3-3-3-3-3-3------------------|____
E|-----------------------3-3-3-3----------|    |
                                              |-- play verse twice
e|----------------------------------------|____|
B|----------------------------------------|
G|----------------------------------------|
D|----------------------------------------|
A|---3-3-3-3-3-3-3-3-3-3------------------|
E|-----------------------3-3-3-3----------|

Pre Chorus

e|----------------------------------------|
B|----------------------------------------|
G|----------------------------------------|___play 5 times
D|----------------------------------------|
A|-----------------------5-5-5-5----------|
E|--8-8-8-8-8-8-8-8-8-8-------------------|

Chorus

e|----------------------------------------|
B|----------------------------------------|
G|----------------------------------------|
D|----------------------------------------|
A|-----7-7--10-10--7-7-----7-7-7h10-------|
E|--8-8----------------8-8-----------5~~--|

Bridge#2

e|--10101010101010/14141414141414/20202020----------------|
B|----------------------------------------  (10) (14) (20-|
G|--------------------------------------------------------|__alternative picking
D|--------------------------------------------------------|
A|--------------------------------------------------------|
E|--------------------------------------------------------|

Verse

e|----------------------------------------|
B|----------------------------------------|
G|----------------------------------------|
D|----------------------------------------|
A|---3-3-3-3-3-3-3-3-3-3------------------|
E|-----------------------3-3-3-3----------|

e|----------------------------------------|
B|----------------------------------------|
G|----------------------------------------|
D|----------------------------------------|
A|---3-3-3-3-3-3-3-3-3-3------------------|
E|-----------------------3-3-3-3----------|

outro

e|----------------------------------------|
B|----------------------------------------|
G|----------------------------------------|
D|----------------------------------------|
A|-----3-3-3-3-3-3-3-3-3-3-5-5-5-5--------|
E|----------------------------------------|

e|----------------------------------------|
B|----------------------------------------|
G|----------------------------------------|
D|----------------------------------------|
A|-----3-3-3-3-3-3-3-3-3-3-5-5-5-5--------|
E|----------------------------------------|

e|----------------------------------------|
B|----------------------------------------|
G|----------------------------------------|
D|-------------------------0-0-0-0-0-0----|
A|-----3-3-3-3-3-3-3-3-3-3-x-x-x-x-x-x----|
E|-----1-1-1-1-1-1-1-1-1-1-1-1-1-1-1-1----|

e|----------------------------------------|
B|----------------------------------------|
G|----------------------------------------|
D|-------------------------0-0-0-0-0-0----|
A|-----3-3-3-3-3-3-3-3-3-3-x-x-x-x-x-x----|
E|-----1-1-1-1-1-1-1-1-1-1-1-1-1-1-1-1----| play entire outro twice then play this ending lick

e|----------------------------------------|
B|----------------------------------------|
G|----------------------------------------|
D|-----------------3~~--------------------|
A|-----5----3---0--3~~--------------------|
E|-----------------1~~--------------------|

hope it helped i will be tabbing more soviet soviet when i can.
Suggest correction
Give kudos to tab author, rate the tab!
1 2 3 4 5
comments
print report bad tab
guest
You may want to rate the tab now too:
select rating
Please do not post tabs as comments. Select "correction" instead!