Oops, an error
Loading. Please wait.

Space Dandy - Lutenist Of Limbo Tab

163 views 33 this week
no commentswrite comment
1 2 3 4 5
3 more votes to show rating
add to favorites
launch autoscroll
font size
0
reset
how to read this tab
guitar tuner
Autoscroll
slow
fast
+/-
esc
set tempo
stop
Help us to improve Ultimate-Guitar.com Take our survey!
×
Author
Difficulty
intermediate
About this tab version
Took it upon myself to make a tab of this brilliant song. It might not be spot on but it's not too far off. Was this info helpful? Yes No
Hey! It's finally here!

[Part 1]
e|--3---------------5------|--2--0--------0--2--2-----0--|
B|-----0-----0------5------|--0-----3--0-----------------|
G|--------0----------------|--0-----2-----------0--0-----|
D|-----0-----0-------------|--2-----0-----4--------------|
A|--------0------3---------|--------------2--------------|
E|--3----------------------|--------------------0--------|


e|--7--0-----0-----8--5--3--|--2-----3--5-----7--3--2--|
B|--------1-----1--5-----5--|--1--3--1--3--0-----0--3--|
G|--5-----------------5-----|-----------------7--------|
D|--------2-----------5-----|--0-----------------4-----|
A|--3-----------0-----------|--------------------------|
E|--------------------------|--------------3-----------|


e|--0-----2--3-----5--2--0--|--2--------------5--3--0--2--|
B|--0--1--0--1-----5--0-----|--0-----3--------5--0--1--0--|
G|--------------2-----0-----|--2--4-----4--2-----2-----0--|
D|--------------4-----2-----|--0-----------4-----2-----0--|
A|--3-----------------------|--------------------------2--|
E|--------------------------|--------------------------3--|


e|--7-----10----7-----10-----|--7-----7-----7-------------|
B|--8-----10----8-----10-----|-----0-----------8----------|
G|--9-----9-----9-----9------|--4-----4-----9------9------|
D|--10----10----10----10-----|-----------------10---------|
A|---------------------------|-----------0----------------|
E|---------------------------|----------------------------|


e|--5--10--7---7---5---3---5--|--7--10--15--14--12------10--|
B|----------------------------|---------------------12------|
G|-----7---4---5-------5------|--0--7---12--11--9-------7---|
D|--7----------0---4-------7--|---------------------9-------|
A|-----------------2---0---5--|-----------------------------|
E|----------------------------|--0--------------------------|


e|--12--14-------------------|------------------------------|
B|-----------15--13--12------|------------------------------|
G|--9---11---14----------12--|------------------------------|
D|-----------------------12--|------------------------------|
A|-----------------------14--|------------------------------|
E|---------------------------|------------------------------|


[Part 2]
    B                           Em
e|---------------------------|---------------15--14--17--15--14-----|
B|--12-----------------------|--12--11--12-----------------------15-|
G|---------------------------|--------------------------------------|
D|---------------------------|--------------------------------------|
A|---------------------------|--------------------------------------|
E|---------------------------|--------------------------------------|

    Bm                                   Em
e|--------14--17-15-14-15--14h15p14---|----------------------------------------|
B|-------15------------------------17-|--15--17--15-------------------12--12-14|
G|--16--16----------------------------|--------16--14-16-12-14---12-14---14----|
D|------------------------------------|------------------------14--------------|
A|------------------------------------|----------------------------------------|
E|------------------------------------|----------------------------------------|

   Am         Bm                      Em
e|----14---------------------------|--------12-12-12-12-----------|
B|-------17-16--17-16-16h17p16-14--|------12----------------------|
G|-------------------------------16|----12------------------------|
D|---------------------------------|--14--------------------------|
A|---------------------------------|------------------------------|
E|---------------------------------|------------------------------|
Suggest correction
Give kudos to tab author, rate the tab!
1 2 3 4 5
comments
print report bad tab
guest
You may want to rate the tab now too:
select rating
Wanna post a correction for this tab? Suggest correction