Oops, an error
Loading. Please wait.

Spiders - Uba Tab

41 views 1 this week
no commentswrite comment
1 2 3 4 5
3 more votes to show rating
add to favorites
launch autoscroll
font size
0
reset
how to read this tab
guitar tuner
Autoscroll
slow
fast
+/-
esc
set tempo
stop
Help us to improve Ultimate-Guitar.com Take our survey!
×
Author
Difficulty
intermediate
-------------------------------------------------------------------------------
                             u.b.a - $P!D☻R$
-------------------------------------------------------------------------------
Tabbed by:TIMOTEO515
Email:TIMOTHY.KLOCK@GMAIL.COM

Tuning:STANDARD
INTRO  DO THIS X 3  _______________________________|   TRP|------------------|
e|-------------------------------------------------|-------------------------|
G|-------------------------------------------------|-------------------------|
D|----4---5---4---5---4---5---4---5---4---5---4---5|-------------------------|
A|--5---5---5---5---2---2---2---2---2---2---2---2--|-------------------------|
E|-------------------------------------------------|---19/-------------------|
DO THIS X5 VERSE                                                         }\
e|----------------------------------------------------------------------- |
B|----------------------------------------------------------------------- |
G|----------------------------------------------------------------------- |
D|----------------------------------------------------------------------- |
A|----------------------------------------------------------------------- |
E|00200030002003002000300200300020030020003002003002003002003002003002003 |
                                                                          |
e|------------------------------------------------|________________________/
B|------------------------------------------------|
G|----------5-X-5-5-X-X-------------2-X-2-2-----\-|
D|----------3-X-3-3-X-X-------------0-X-0-0-------| \
A|2-X-X-2-X-------------5-X-X-5-X-X---------------| /
E|0-X-X-0-X-------------3-X-X-3-X-X---------------|
CHORUS
e|--------------------------------------------------------------------------|
B|--------------------------------------------------------------------------|
G|--------------------------------------------------------------------------|
D|--------------------------------------------------------------------------|
A|---------22222222222222222222222222-------2-------------------------------|
E|0(To-Play-This-Right-Let-This-Ring)-----0-0-------------------------------|
{TUNE BEHIND SOLO[X=SAME NOTE BEFORE XCEPT MUTED(OVERDRIVE WITH OCTANE)]
e|--------------------------------------------------------------------------|
B|--------------------------------------------------------------------------|
G|--------------------------------------------------------------------------|
D|--------------------------------------------------------------------------|
A|2-X-X-X-X-X-X-X-X-5-X-X-X-X-X-X-X-X-X-2-X-X-X-X-X-X-X-X-5-X-X-X-X-X-X-X-X-|
E|0-X-X-X-X-X-X-X-X-3-X-X-X-X-X-X-X-X-X-0-X-X-X-X-X-X-X-X-3-X-X-X-X-X-X-X-X-|
SOLO (ALL TAPPING)X3
e|7-12-7-12-7-12-7-12-7-12-7-12-7-12-7/12-15-12-15-12-15-12-15-12-15-12-15--|
B|--------------------------------------------------------------------------|
G|--------------------------------------------------------------------------|
D|--------------------------------------------------------------------------|
A|--------------------------------------------------------------------------|
E|--------------------------------------------------------------------------|

e|--------------------------------------------------------------------------|
B|12-15-12-15-12-15-12-15-7-12-7-12-7-12-7-12-7-12-7-12-7-12----------------|
G|--------------------------------------------------------------------------|
D|--------------------------------------------------------------------------|
A|--------------------------------------------------------------------------|
E|--------------------------------------------------------------------------|
OUTRO(INTRO WITH DISTORTION)
e|--------------------------------------------------------------------------|
B|--------------------------------------------------------------------------|
G|--------------------------------------------------------------------------|
D|--------------------------------------------------------------------------|
A|--------------------------------------------------------------------------|
E|--------------------------------------------------------------------------|
TIMELINE:
Intro
Verse X3
chorus
verse X2
Chorus
Solo
Outro
************************************

| /   slide up
| \   slide down
| h   hammer-on
| p   pull-off
| ~   vibrato
| +   harmonic
| x   Mute note
| b   Bend
| pb  Pre-bend
| br  Bend release
| pbr Pre-bend release
| brb Bend release bend

************************************
Suggest correction
Give kudos to tab author, rate the tab!
1 2 3 4 5
comments
print report bad tab
guest
You may want to rate the tab now too:
select rating
Wanna post a correction for this tab? Suggest correction