Oops, an error
Loading. Please wait.

Spiritual Circus - Cowboy Chords

78 views 1 this week
no commentswrite comment
1 2 3 4 5
3 more votes to show rating
add to favorites
launch autoscroll
font size
0
reset
transpose
0
reset
display chords
guitar tuner
Autoscroll
slow
fast
+/-
esc
set tempo
stop
Help us to improve Ultimate-Guitar.com Take our survey!
×
Author
Capo
2nd fret
'Cowboy'

Spiritual Circus

Tabbed By Paul

Capo 2nd Fret

****Note that for all A minor and D chords throughout the song, the chord sequence is 
(for Am) an alternation between Am and Am7
as appropriate and (for D) an alternation between D and Dsus4****


Introduction

Am  D Am D


Verse 1
Am
Look at me ma,  making little girls scream,
          D
Like a cowboy star on the silver screen,
Am
With a hand on my heart and a gun by my side,
D                                                 Am         D       Am        D
I've killed men, and in that I find my pride

        Am                                                  D
But I don't hear no moment's silence, for all those who by my gun died
              Am                                   D
With the alias of a hero, I'd claim my freedom is my bride,
                   Am
But you can call me a hero call me what you will,
      D
I'm devoid of moral conscience yet I love it still,
      Am
My mind is twsited and I sold my soul,
           D
To the devil himself. for the one cheap thrill,
     Am
Of killing a man just to watch him die,
              D
You can strip me down ma, no matter how hard you try...

Chorus
F
You'll find nothing else,
G
You'll find nothing else ma,
       A
But a cowboy,
F
You'll find nothing else,
G
You'll find nothing else ma
        A                G A G A G 
G A G F
But a cowboy...

Verse 2

Am D (x2)

Am
A shot rings out on an open road,
D
One of us is down so drop the load,
     Am                                        D
As morality, has just stepped into gear,
      Am
But I look out and I can't see,
           D
For the plank that lies in front of me,
  Am                                     D
I only envision the splinter in your eye
                   Am
But you can call me a hero call me what you will,
         D
I'm devoid of moral conscience yet I love it still,
      Am
My mind is twsited and I sold my soul,
          D
To the devil himself. for the one cheap thrill,
     Am
Of killing a man just to watch him die,
             D
You can strip me down ma, no matter how hard you try...


Chorus

F
You'll find nothing else,
G
You'll find nothing else ma,
       A
But a cowboy,
F
You'll find nothing else,
G
You'll find nothing else ma
        A                G A G A G 
G A G F
But a cowboy...


Solo Chords : F G A  (x3)


Solo:

|-------------------------------------------------------------------------|
|-------------------------------------------------------------------------|
|------11---9---7b8-------------------------------------------------------|
|-------------------------9vvv----9---9---12---14---14b15b14---12---9-----|
|-------------------------------------------------------------------------|
|-------------------------------------------------------------------------|


|-------------------------------------------------------------------------|
|-------------------------------------------------------------------------|
|-------------------------------------------------------------------------|
|-----9---11---9---11---11b12---9---9---7---7---7---7---7---7---7---9---9-|
|-------------------------------------------------------------------------|
|-------------------------------------------------------------------------|


|-------------------------------------------------------------------------|
|-------------------------------------------------------------------------|
|---11---9---7---9vv---9b10---7---------7--------------7----9b10----------|
|--------------------------------9---9-----9---7---9-------9-7------------|
|-------------------------------------------------------------------------|
|-------------------------------------------------------------------------|


|----------------------|
|----------------------|
|----------------------|
|--------9---9---------|
|----------------------|
|----------------------|

F
You'll find nothing else,
G
You'll find nothing else ma,
        G
But a cowboy,


Outro

Am
Look at me ma,  making little girls scream,
          D
Like a cowboy star on the silver screen,
Am
With a hand on my heart and a gun by my side,
D                                      Am
I've killed men, and in that I find my pride
Suggest correction
Give kudos to tab author, rate the tab!
1 2 3 4 5
comments
print report bad tab
guest
You may want to rate the tab now too:
select rating
Wanna post a correction for this tab? Suggest correction