Oops, an error
Loading. Please wait.

Split Second - Loss Of Breath Bass

106 views 1 this week
no commentswrite comment
1 2 3 4 5
3 more votes to show rating
add to favorites
launch autoscroll
font size
0
reset
guitar tuner
×
Best way to learn
"Split Second - Loss Of Breath"
Autoscroll
slow
fast
+/-
esc
set tempo
stop
Difficulty
novice
loss of breath
this is one of my bands songs
   this song is on the album smoke screen so if you like it buy the CD in a couple of years
  A
g|------------------|x8
d|------------------|
a|------8-8-8-----8-|
e|-7-7-7-----7-7-7--| 
   chorus                         x5
g|---------------------------------|--
d|---------------------------------|--
a|-7-7-7-5-5-7-7-7-7-7-7-5-5-7-7-7-|--
e|--------7---------------7--------|--
    continued
-|---------------------------------|
-|---------------------------------|
-|-2-2-2-0-0-2-2-2-2-2-2-0-0-2-2-2-|
-|--------2---------------0--------|

g|------------------|x7
d|------------------|
a|------8-8-8-----8-|
e|-7-7-7-----7-7-7--| 
                               x5
g|---------------------------------|--
d|---------------------------------|--
a|-7-7-7-5-5-7-7-7-7-7-7-5-5-7-7-7-|--
e|--------7---------------7--------|--
    continued
-|---------------------------------|
-|---------------------------------|
-|-2-2-2-0-0-2-2-2-2-2-2-0-0-2-2-2-|
-|--------2---------------0--------|
  during gutiar solo 
g|-----------------------------------|x2
d|-----------------------------------|
a|-----------------------------------|
e|-5-7-5-7-5-7-5-7-7-5-3-3-5-3-5-3-5-|
   bass solo
g|-15-17-12-14----------------------------------|
d|------------15-17-12-14-----------------------|
a|-----------------------15-17-12-14------------|
e|----------------------------------15-17-12-14-|
                                x5
g|---------------------------------|--
d|---------------------------------|--
a|-7-7-7-5-5-7-7-7-7-7-7-5-5-7-7-7-|--
e|--------7---------------7--------|--
    continued
-|---------------------------------|
-|---------------------------------|
-|-2-2-2-0-0-2-2-2-2-2-2-0-0-2-2-2-|
-|--------2---------------0--------|

i hope you like this song.   J man out.

Suggest correction
Give kudos to tab author, rate the tab!
1 2 3 4 5
comments
print report bad tab
guest
You may want to rate the tab now too:
select rating
Wanna post a correction for this tab? Suggest correction