Oops, an error
Loading. Please wait.

Splooge - Shun The Tickle Tab

63 views 1 this week
no commentswrite comment
1 2 3 4 5
please rate
add to favorites
launch autoscroll
font size
0
reset
how to read this tab
guitar tuner
Autoscroll
slow
fast
+/-
esc
set tempo
stop
Help us to improve Ultimate-Guitar.com Take our survey!
×
Author
Difficulty
novice
Verse

E----------------------------|
B-------2--------------------|
G-------2--------------------|   Repeat 8 times
D-2--5--2--2-----------------|
A-2--5—----2-----------------|
E-0--3-—---0-0-0-0-0-0-0-0---|
Pre-Chorus

E---------------------------------------------|
B-------2------2------2---2---2---------------|
G-------2------2------2---2---2---------------|
D-2--5--2--2---2--2---2-2-2-2-2-2-2-2-2-2-2-2-|
A-2--5-----2------2-----2---2---2-2-2-2-2-2-2-|
E-0--3-----0-0----0-0---0---0---0-0-0-0-0-0-0-|


Chorus

E-2-2-0----------------------|
B-3-3-0-2-2------------------|
G-2-2-0-2-2------------------|  x 3
D-----0-2-2-2----------------|
A-----x-----2----------------|
E-----x-----0--0-0-0-0-0-0-0-|


E-2-2-0-----4--|
B-3-3-0-2-2-5--|
G-2-2-0-2-2-4--|  last time
D-----0-2-2----|
A-----x--------|
E-----x--------|

Solo

E-7-5-4-0---7-5-4-0-|
B-------------------|
G-------------------|
D-------------------|
A-------------------|
E-------------------|

E----------------------------|
B----------------------------|
G-19b20b19-19-18-16----------|
D-------------------19-18-16-|
A----------------------------|
E----------------------------|


E------12------12------12-|
B----12------12------12---|
G-b14-----b14-----b14-----|
D-------------------------|
A-------------------------|
E-------------------------|

E-12h15p12---12--------------|
B----------12--15-12---------|
G-------------------14-12----|
D-------------------------14-|
A----------------------------|
E----------------------------|

E------------------|
B------------------|
G------------------|
D-14-14-14------12-|
A-14-14-14-12h14---|
E-12-12-12---------|


Verse
Pre-Chorus
Chorus
Verse
Pre-Chorus
Chorus
Solo
Chorus till end
Suggest correction
What's this?
You can suggest a correction to this tab. Community and Mods will review your correction and vote to approve or reject it.
comments
We did not receive enough feedback on this tab! Please rate:
print report bad tab
1 2 3 4 5
guest
You may want to rate the tab now too:
select rating
Please do not post tabs as comments. Select "correction" instead!