Oops, an error
Loading. Please wait.

Spongebob - Loop De Loop Chords

5,848 views 15 this week
3 commentsread comments
1 2 3 4 5
excellent!
x 8
add to favorites
launch autoscroll
font size
0
reset
transpose
0
reset
display chords
guitar tuner
Autoscroll
slow
fast
+/-
esc
set tempo
stop
Help us to improve Ultimate-Guitar.com Take our survey!
×
Contributor
Difficulty
novice
So this is my first tab, since i couldn't find the chords for this song. 
shoutouts to leslie roi :3
Intro
C G D G

G
Wanna learn how to tie your shoe?
C               G
It's a very easy thing to do.
C                 G
So sit on down and I'll give you the scoop.
             A
What's that?
                     D
It's called the loop-de-loop.
G
You gotta take a lace in each hand.
C                  G
Go over and under again.
                     C                  G
You make a loop-de loop then pull.
              D               G
And your shoes are lookin' cool.




Bridge

G

You go over and back.
Left to right
D                      G
Loop de loop and you pull them tight.

Like bunny ears or a christmas bow.
D                    G
Lace 'em up and you're ready to go.



Chorus
C                       G
You make a loop-de-loop then pull.
D                        G
And your shoes are lookin' cool.




SOLO

e|----------------------------------------------------------------------------------|I
B|----------------------------------------------------------------------------------|I
G|---------4-5-7---------------------------------------------/9------7--------------|I
D|/9-7-5-5-5-7-9-----9-7-5----5-----5-^--7---/9-------------------------------------|I
A|-------------------------7-----7--------------------------------------------------|I
E|----------------------------------------------------------------------------------|I


outro
C                            G
You make a loop-de-loop then pull.
D                    G  F# G
And your shoes are lookin' cool.





During the bridge, there is a piano playing an arpeggio, you could use these chords instead.
comments
print report bad tab
3 comments total.
+2 reply
andrew.duzenski 15 wrote on March 1 2015, 07:34 pm

The G in "Go over and under again" should be B7

0 reply
kostas207 55 wrote on January 17 2016, 09:00 am, edited at 09:00 am

I think this is the correct solo:

0 reply
kostas207 55 wrote on January 17 2016, 09:01 am

I think this is the correct solo:


e|--------------------------------------------------------------------|
B|---------------------------12~~~~--12--12-------------12--15b--12---|
G|-------------12--12--14--15--------------14--12--14--15-------------|
D|--12h14--(12)-------------------------------------------------------|
A|--------------------------------------------------------------------|
E|--------------------------------------------------------------------|

I want to post or [tab]
guest
You may want to rate the tab now too:
select rating
Please do not post tabs as comments. Select "correction" instead!