Oops, an error
Loading. Please wait.

Spooj And Farhndog - The Beast Within Tab

51 views 1 this week
no commentswrite comment
1 2 3 4 5
please rate
add to favorites
launch autoscroll
font size
0
reset
how to read this tab
guitar tuner
Tab Pro tools
  • play this tab
  • loop segment
  • change instrument
  • show fretboard
  • metronome
Autoscroll
slow
fast
+/-
esc
set tempo
stop
Contributor
Difficulty
intermediate
-------------------------------------------------------------------------------
	       The Beast Within-Nate Farhner and Spencer Paul-Jones
-------------------------------------------------------------------------------
Tabbed by: Nate Farhner
Email: grimfig@gmail.com

Tuning:Standard
Capo: 3rd fret- Chords shown are the form not the actually chord(Em=Gm, C=D#, D=F)
The third neck down are chords and you'll need to listen to the song to get the 
strumming and changes down cause I must say, it's actually kinda complicated.
This song struggles with have a straight time signature ha so here's the link 
http://www.youtube.com/watch?v=EGW5SyIp19s
Also with the chords, when the e and b are blank it's actually open.

e|--0--0--0-0--0--0-0--0--0-0--0--0-0--0--0-0--0--0-0--0--0-0----------------|
B|---0--0----0--0----1--1----1--1----0--0----0--0----1--1----1---------------|
G|----0--0----0--0----0--0----0--0----0--0----0--0----0--0----0--------------|
D|-------------------------------------------------------------0h2-----------|
A|-----------------3-------3-----------------------3-------3-----------------|
E|-0-------O-----------------------0-------0---------------------------------|

e|--0--0--0-0--0--0-0--0--0-0--0---0--0--0-0--0--0-0--0--0-------------------|
B|---0--0----1--1----0--0----1--1---0--0----1--1----1--1--1p0----------------|
G|----0--0----0--0----0--0----0--0---0--0----0--0----0--0----0------------h12|
D|------------------------------------------------------------0h2h5h7h9------|
A|---------3---------------3--------------3-------3--------------------h10---|
E|-0---------------0--------------0------------------------------------------|

e|------------------------------------7---7---7---3---5----------------------|
B|-------------------8---8--------------8---8-----------------8---8----------|
G|-9----5--7-------9-9-9-9-9-5-7------9-9-9-9-9-5-5-7-7-----9-9-9-9-9-5-7-9--|
D|-9----5--7--x2---9-9-9-9-9-5-7--x2--9-9-9-9-9-5-5-7-7--x4-9-9-9-9-9-5-7-9--|
A|-7----3--5-------7-7-7-7-7-3-5------7-7-7-7-7-3-3-5-5-----7-7-7-7-7-3-5-7--|
E|---------------------------------------------------------------------------|
  Em    C  D	     Em 	 C D	    Em	       C  D
    Chorus A		Chorus B		Chorus C
e|-----------------------------------x---------------------------------------|
B|-----------------------------------x---------------------------------------|
G|-----------------------------------x---------------------------------------|
D|--9-9-9-9-5-5-7-7-x5--9-9-9-9-5-5--x---------------------------------------|
A|-7-7-7-7-3-3-5-5-----7-7-7-7-3-3-5-x---------------------------------------|
E|-----------------------------------x---------------------------------------|
				  slap all strings
e|-----------------------------0--2--0---0-2-0----+--------------------------|
B|-----------------------------1--3--0---1-3-0----+--------------------------|
G|--0-0-0-0-0-0-0-0------0-0-0-0--2--0---0-2-0----+--------------------------|
D|---9---9---5---7--x2----9----2--0--2---2-0-2----+--------------------------|
A|-7---7---3---5--------7---7--3-----2---3-x-2----+--------------------------|
E|-----------------------------x-----0---x-x-0/12-+--------------------------|

e|-------------------------------------0-5-----------------------------------|
B|-------------------------------------0-5-----------------------------------|
G|Chorus-B x3-Chorus-C x4-Chorus-B x3--7-7-----------------------------------|
D|-------------------------------------7-7-----------------------------------|
A|-------------------------------------5-5-7--7-7-7-7-7-7-7-7-7-7-7-7-7------|
E|---------------------------------------------------------------------------|

e|-0-5-0-0-0-0-0-0-0-0-0-0-0-0-0-0-7-0-+-------------------------------------|
B|-0-5-0-8-0-8-0-8-0-8-0-8-0-8-0-8-8-0-+-------------------------------------|
G|-7-7-9-9-9-9-9-9-9-9-9-9-9-9-9-9-9-0-+-------------------------------------|
D|-7-7-9-9-9-9-9-9-9-9-9-9-9-9-9-9-9-2---------------------------------------|
A|-5-5-7-7-7-7-7-7-7-7-7-7-7-7-7-7-7-2---------------------------------------|
E|-----------------------------------0---------------------------------------|

Give it a shot! And seriously go to the Youtube link, you probably won't be able to get 
the chords down without it. Oh and this is my first tab btws...


************************************

| /   slide up
| \   slide down
| h   hammer-on
| p   pull-off
| +   harmonic
| x   Mute note

************************************
comments
We did not receive enough feedback on this tab! Please rate:
print report bad tab
1 2 3 4 5
I want to post or [tab]
guest
You may want to rate the tab now too:
select rating
Please do not post tabs as comments. Select "correction" instead!