Oops, an error
Loading. Please wait.

Ssdd - Battlecries Not Today Tab

86 views 1 this week
no commentswrite comment
1 2 3 4 5
3 more votes to show rating
add to favorites
launch autoscroll
font size
0
reset
how to read this tab
guitar tuner
Autoscroll
slow
fast
+/-
esc
set tempo
stop
Help us to improve Ultimate-Guitar.com Take our survey!
×
Author
Difficulty
-----------------------------------------------------------------------------
                      BATTLECRIES (NOT TODAY) - SSDD
-----------------------------------------------------------------------------
Tabbed by: Chris Huffman
Email: chippyguitarist@aol.com

Tuning: Standard

INTRO/VERSE/BRIDGE
e|-------------------------------------------------------------------------|
B|-------------------------------------------------------------------------|
G|--5-5-5-5--5-------------------------------------------------------------|
D|--5-5-5-5--5--5-5-5-5--5--3-3-3-3--3-3--3--------------------------------|
A|--3-3-3-3--3--5-5-5-5--5--3-3-3-3--3-3--3--------------------------------|
E|--------------3-3-3-3--3--1-1-1-1--1-1--1--------------------------------|
PM  *******     *******     *******    *

e|-------------------------------------------------------------------------|
B|-------------------------------------------------------------------------|
G|--5-5-5-5--5-------------------------------------------------------------|
D|--5-5-5-5--5--5-5-5-5--5--3-3-3-3--3-3--3~~------------------------------|
A|--3-3-3-3--3--5-5-5-5--5--3-3-3-3--3-3--3~~------------------------------|
E|--------------3-3-3-3--3--1-1-1-1--1-1--1~~------------------------------|
PM  *******     *******     *******    *

CHORUS
e|-------------------------------------------------------------------------|
B|-------------------------------------------------------------------------|
G|--5-5-5-5-5--------------------------------------------------------------|
D|--5-5-5-5-5--5-5-5-5-5--7-7-7-7-7--3-3-3-3-3-----------------------------|
A|--3-3-3-3-3--5-5-5-5-5--7-7-7-7-7--3-3-3-3-3-----------------------------|
E|-------------3-3-3-3-3--5-5-5-5-5--1-1-1-1-1-----------------------------|

e|-------------------------------------------------------------------------|
B|-------------------------------------------------------------------------|
G|--5-5-5-5-5--------------------------------------------------------------|
D|--5-5-5-5-5--5-5-5-5-5--3-3-3-3-3--7-7-7-7-7-----------------------------|
A|--3-3-3-3-3--5-5-5-5-5--3-3-3-3-3--7-7-7-7-7-----------------------------|
E|-------------3-3-3-3-3--1-1-1-1-1--5-5-5-5-5-----------------------------|

POST-CHORUS
e|----------------------------------|
B|----------------------------------|
G|--5-5-x---------------------------|
D|--5-5-x--5-5--3-3-3-3-3-----------|
A|--3-3-x--5-5--3-3-3-3-3-----------|
E|---------3-3--1-1-1-1-1-----------|

e|----------------------------------|
B|----------------------------------|
G|--5-5-x---------------------------|
D|--5-5-x--5-5--3-3-3-3-3-----------|
A|--3-3-x--5-5--3-3-3-3-3-----------|
E|---------3-3--1-1-1-1-1-----------|

END
e|-------------------------------------------------------------------------|
B|-------------------------------------------------------------------------|
G|--5~~--------------------------------------------------------------------|
D|--5~~--------------------------------------------------------------------|
A|--3~~--------------------------------------------------------------------|
E|-------------------------------------------------------------------------|


| /  slide up
| \  slide down
| h  hammer-on
| p  pull-off
| ~  vibrato
| +  harmonic
| x  Mute note
=============================================================================

SONG ORDER
----------
INTRO
CHORUS
POST-CHORUS
VERSE
CHORUS
POST-CHORUS
VERSE
CHORUS
POST-CHORUS
BRIDGE (BASS ONLY)
CHORUS (x2)
END
Suggest correction
Give kudos to tab author, rate the tab!
1 2 3 4 5
comments
print report bad tab
guest
You may want to rate the tab now too:
select rating
Wanna post a correction for this tab? Suggest correction