Oops, an error
Loading. Please wait.

Standing Room Only - Man Of Deeds Tab

100 views 1 this week
no commentswrite comment
1 2 3 4 5
please rate
add to favorites
launch autoscroll
font size
0
reset
how to read this tab
guitar tuner
Tab Pro tools
  • play this tab
  • loop segment
  • change instrument
  • show fretboard
  • metronome
×
Best way to learn
"Standing Room Only - Man Of Deeds"
Autoscroll
slow
fast
+/-
esc
set tempo
stop
Contributor
Difficulty
Tuning
intermediate
D A D G B E
Tuning Drop D

- Standing Room Only
- Man Of Deeds

Riff 1/ Guitar 1
E|---------------------------------------|X2|
B|---------------------------------------|X2|
G|---------------------------------------|X2|
D|---------------------------------------|X2|
A|--3/5-5-555-5/8-8888888-5/7-7777-7/10--|X2|
D|--0/0-0-000-0/0-0000000-0/0-0000-0/0---|X2|

Then Riff 1 is played at the same time as..

Riff 2/ Guitar 2
E|---------------------------------------|X2|
B|---------------------------------------|X2|
G|---------------------------------------|X2|
D|---------------------------------------|X2|
A|--9-9-9-999-7-7-77777-5-5-5-5-5-88-7777|X2|
D|--0-0-0-000-7-7-77777-5-5-5-5-5-55-5555|X2|

Riff 3/ Guitar 2
E|-------------------------------------------------------|x2|
B|-------------------------------------------------------|x2|
G|-------------------------------------------------------|x2|
D|-------------------------------------------------------|x2|
A|--9-9-9-9-9-99-9999-77-5-55-55-5555-5-5-5-55-55-5335---|x2|
D|--0-0-0-0-0-00-0000-77-7-77-77-7777-5-5-5-55-55-5555---|x2|

Riff 4/ Both Guitars
E|----------------------------------------------|
B|----------------------------------------------|
G|----------------------------------------------|
D|--00-0----1010-10----55-5----------------------|
A|--00-0----1010-10----55-5----0000000000000000--|
D|--00-0----1010-10----55-5----0000000000000000--|

Riff 5/ Both Guitars
E|-----------------|-----------------|-----------------|-----------------|x2|
B|-----------------|-----------------|-----------------|-----------------|x2|
G|-----------------|-----------------|-5-5-5-5-55-5555-|-----------------|x2|
D|-0-0-0-0-00-0000-|-7-7-7-7-77-7777-|-5-5-5-5-55-5555-|-5-5-5-5-55-5555-|x2|
A|-0-0-0-0-00-0000-|-7-7-7-7-77-7777-|-3-3-3-3-33-3333-|-5-5-5-5-55-5555-|x2|
D|-0-0-0-0-00-0000-|-7-7-7-7-77-7777-|-----------------|-5-5-5-5-55-5555-|x2|

Riff 6/ Both Guitars
E|---------------------------------------|--|------------------|
B|---------------------------------------|--|------------------|
G|---------------------------------------|--|------------------|
D|-0-0-3-0-7-777-5-3----0-0-3-0-888-5-7--|X2|--777777777-12/0--|
A|-0-0-3-0-7-777-5-3----0-0-3-0-888-5-7--|X2|--777777777-12/0--|
D|-0-0-3-0-7-777-5-3----0-0-3-0-888-5-7--|X2|--777777777-12/0--|

Riff 7/ Guitar 1
E|-----------------------------------------------------------------|X2|
B|-----------------------------------------------------------------|X2|
G|-----------------------------------------------------------------|X2|
D|-2-2-2-22-22-24-5-5-5-55-55-54-0-0-0-00-00-0000-7-7-7-77-77-7777-|X2|
A|-2-2-2-22-22-24-5-5-5-55-55-54-0-0-0-00-00-0000-7-7-7-77-77-7777-|X2|
D|-2-2-2-22-22-24-5-5-5-55-55-54-0-0-0-00-00-0000-7-7-7-77-77-7777-|X2|

Solo Riff/ Guitar 2
E|--------------------------------------------------------------------------|
B|-10/12-8-10/12-8-------10/12-8-10/12-8--------8h5-8h5-8h5-8h5-8h5-8-10/12-|
G|----------------9-7-9~-----------------9-7-9-----7---7---7---7---7--------|
D|--------------------------------------------------------------------------|
A|--------------------------------------------------------------------------|
D|--------------------------------------------------------------------------|

...

E|--------------------------------------------------------------------------|
B|-8---8-10/12-8----------------------------------------------------14b15---|
G|---9----------9--7-9-7-9-77---7-----------------------------------13b14---|
D|----------------------------9---9-7---7--7--------------------------------|
A|------------------------------------10-10-10-7-5-7--5h7-5-7-5-5~----------|
D|--------------------------------------------------------------------------|

...

E|----------------------------------------------15--17b19-17b19-15----------|
B|-14b15-----------------------------------------------------------15h17-17-|
G|-13b14-12~-11h12h11-12-11-------------------------------------------------|
D|-------------------------12-14--12h14-12h14-12----------------------------|
A|--------------------------------------------------------------------------|
D|--------------------------------------------------------------------------|

...

E|---------|
B|-15-17~--|
G|---------|
D|---------|
A|---------|
D|---------|

Riff 8/ Guitar 1
E|----------------------------------------------------------------------|X2|
B|----------------------------------------------------------------------|X2|
G|----------------------------------------------------------------------|X2|
D|-2-2-2-2-2-2-2-2-4-4-4-4-4-4-4-4-5-5-5-5-5-5-5-5-7-7-7-7-10-10-9-8h7--|X2|
A|-2-2-2-2-2-2-2-2-4-4-4-4-4-4-4-4-5-5-5-5-5-5-5-5-7-7-7-7-10-10-9-8h7--|X2|
D|-2-2-2-2-2-2-2-2-4-4-4-4-4-4-4-4-5-5-5-5-5-5-5-5-7-7-7-7-10-10-9-8h7--|X2|

Solo Riff 2
E|--12-|X14|--14-|X14|--15-|X14|--17-|X14|--|X2|
B|-----|---|-----|---|-----|---|-----|---|--|--|
G|-----|---|-----|---|-----|---|-----|---|--|--|
D|-----|---|-----|---|-----|---|-----|---|--|--|
A|-----|---|-----|---|-----|---|-----|---|--|--|
D|-----|---|-----|---|-----|---|-----|---|--|--|
Structure.

Riff 1
Riff 2
Riff 3
Riff 4
Riff 5
Riff 6
Repeat Above
Riff 7 + Solo
Riff 5 x2
Riff 6

Lyrics.

This is who I really am.
Your heart will surely bleed again.
You know girl, life´s unfair.
Look into my eyes you'll see that there is something wrong with me.
(Maybe)
It is.

Im a man of deeds.
Better regret the things I've done than those I didn't. (Do) x2

I have nothing left too loose.
And.
All I care about is drugs and booze.
It will never be you and me.

All I want.
Is you to understand.
All I need.
Is you to forget. x2

Im a man of deeds.
Better regret the things I've done than those I didn't. (Do) x2

Im a man of deeds
Better regret the things I've done than those I didn't. (Do) x2
END.


Thanks Guys
Tabbed by Jacob Greenhalgh-Lee

comments
We did not receive enough feedback on this tab! Please rate:
print report bad tab
1 2 3 4 5
I want to post or [tab]
guest
You may want to rate the tab now too:
select rating
Please do not post tabs as comments. Select "correction" instead!